  0
SECTION
  2
HEADER
  9
$ACADVER
  1
AC1012
  9
$DWGCODEPAGE
  3
ansi_1252
  9
$INSBASE
 10
0.0
 20
0.0
 30
0.0
  9
$EXTMIN
 10
1.000000000000000E+20
 20
1.000000000000000E+20
 30
1.000000000000000E+20
  9
$EXTMAX
 10
-1.000000000000000E+20
 20
-1.000000000000000E+20
 30
-1.000000000000000E+20
  9
$LIMMIN
 10
0.0
 20
0.0
  9
$LIMMAX
 10
12.0
 20
9.0
  9
$ORTHOMODE
 70
     0
  9
$REGENMODE
 70
     1
  9
$FILLMODE
 70
     1
  9
$QTEXTMODE
 70
     0
  9
$MIRRTEXT
 70
     1
  9
$DRAGMODE
 70
     2
  9
$LTSCALE
 40
1.0
  9
$OSMODE
 70
    37
  9
$ATTMODE
 70
     1
  9
$TEXTSIZE
 40
0.2
  9
$TRACEWID
 40
0.05
  9
$TEXTSTYLE
  7
STANDARD
  9
$CLAYER
  8
0
  9
$CELTYPE
  6
BYLAYER
  9
$CECOLOR
 62
   256
  9
$CELTSCALE
 40
1.0
  9
$DELOBJ
 70
     1
  9
$DISPSILH
 70
     0
  9
$DIMSCALE
 40
1.0
  9
$DIMASZ
 40
0.18
  9
$DIMEXO
 40
0.0625
  9
$DIMDLI
 40
0.38
  9
$DIMRND
 40
0.0
  9
$DIMDLE
 40
0.0
  9
$DIMEXE
 40
0.18
  9
$DIMTP
 40
0.0
  9
$DIMTM
 40
0.0
  9
$DIMTXT
 40
0.18
  9
$DIMCEN
 40
0.09
  9
$DIMTSZ
 40
0.0
  9
$DIMTOL
 70
     0
  9
$DIMLIM
 70
     0
  9
$DIMTIH
 70
     1
  9
$DIMTOH
 70
     1
  9
$DIMSE1
 70
     0
  9
$DIMSE2
 70
     0
  9
$DIMTAD
 70
     0
  9
$DIMZIN
 70
     0
  9
$DIMBLK
  1

  9
$DIMASO
 70
     1
  9
$DIMSHO
 70
     1
  9
$DIMPOST
  1

  9
$DIMAPOST
  1

  9
$DIMALT
 70
     0
  9
$DIMALTD
 70
     2
  9
$DIMALTF
 40
25.4
  9
$DIMLFAC
 40
1.0
  9
$DIMTOFL
 70
     0
  9
$DIMTVP
 40
0.0
  9
$DIMTIX
 70
     0
  9
$DIMSOXD
 70
     0
  9
$DIMSAH
 70
     0
  9
$DIMBLK1
  1

  9
$DIMBLK2
  1

  9
$DIMSTYLE
  2
STANDARD
  9
$DIMCLRD
 70
     0
  9
$DIMCLRE
 70
     0
  9
$DIMCLRT
 70
     0
  9
$DIMTFAC
 40
1.0
  9
$DIMGAP
 40
0.09
  9
$DIMJUST
 70
     0
  9
$DIMSD1
 70
     0
  9
$DIMSD2
 70
     0
  9
$DIMTOLJ
 70
     1
  9
$DIMTZIN
 70
     0
  9
$DIMALTZ
 70
     0
  9
$DIMALTTZ
 70
     0
  9
$DIMFIT
 70
     3
  9
$DIMUPT
 70
     0
  9
$DIMUNIT
 70
     2
  9
$DIMDEC
 70
     4
  9
$DIMTDEC
 70
     4
  9
$DIMALTU
 70
     2
  9
$DIMALTTD
 70
     2
  9
$DIMTXSTY
  7
STANDARD
  9
$DIMAUNIT
 70
     0
  9
$LUNITS
 70
     2
  9
$LUPREC
 70
     4
  9
$SKETCHINC
 40
0.1
  9
$FILLETRAD
 40
0.5
  9
$AUNITS
 70
     0
  9
$AUPREC
 70
     0
  9
$MENU
  1
.
  9
$ELEVATION
 40
0.0
  9
$PELEVATION
 40
0.0
  9
$THICKNESS
 40
0.0
  9
$LIMCHECK
 70
     0
  9
$CHAMFERA
 40
0.5
  9
$CHAMFERB
 40
0.5
  9
$CHAMFERC
 40
1.0
  9
$CHAMFERD
 40
0.0
  9
$SKPOLY
 70
     0
  9
$TDCREATE
 40
2455974.562472396
  9
$TDUPDATE
 40
2455974.562472407
  9
$TDINDWG
 40
0.0000000116
  9
$TDUSRTIMER
 40
0.0000000116
  9
$USRTIMER
 70
     1
  9
$ANGBASE
 50
0.0
  9
$ANGDIR
 70
     0
  9
$PDMODE
 70
     0
  9
$PDSIZE
 40
0.0
  9
$PLINEWID
 40
0.0
  9
$COORDS
 70
     1
  9
$SPLFRAME
 70
     0
  9
$SPLINETYPE
 70
     6
  9
$SPLINESEGS
 70
     8
  9
$ATTDIA
 70
     0
  9
$ATTREQ
 70
     1
  9
$HANDLING
 70
     1
  9
$HANDSEED
  5
286
  9
$SURFTAB1
 70
     6
  9
$SURFTAB2
 70
     6
  9
$SURFTYPE
 70
     6
  9
$SURFU
 70
     6
  9
$SURFV
 70
     6
  9
$UCSNAME
  2

  9
$UCSORG
 10
0.0
 20
0.0
 30
0.0
  9
$UCSXDIR
 10
1.0
 20
0.0
 30
0.0
  9
$UCSYDIR
 10
0.0
 20
1.0
 30
0.0
  9
$PUCSNAME
  2

  9
$PUCSORG
 10
0.0
 20
0.0
 30
0.0
  9
$PUCSXDIR
 10
1.0
 20
0.0
 30
0.0
  9
$PUCSYDIR
 10
0.0
 20
1.0
 30
0.0
  9
$USERI1
 70
     0
  9
$USERI2
 70
     0
  9
$USERI3
 70
     0
  9
$USERI4
 70
     0
  9
$USERI5
 70
     0
  9
$USERR1
 40
0.0
  9
$USERR2
 40
0.0
  9
$USERR3
 40
0.0
  9
$USERR4
 40
0.0
  9
$USERR5
 40
0.0
  9
$WORLDVIEW
 70
     1
  9
$SHADEDGE
 70
     3
  9
$SHADEDIF
 70
    70
  9
$TILEMODE
 70
     1
  9
$MAXACTVP
 70
    64
  9
$PINSBASE
 10
0.0
 20
0.0
 30
0.0
  9
$PLIMCHECK
 70
     0
  9
$PEXTMIN
 10
1.000000000000000E+20
 20
1.000000000000000E+20
 30
1.000000000000000E+20
  9
$PEXTMAX
 10
-1.000000000000000E+20
 20
-1.000000000000000E+20
 30
-1.000000000000000E+20
  9
$PLIMMIN
 10
0.0
 20
0.0
  9
$PLIMMAX
 10
12.0
 20
9.0
  9
$UNITMODE
 70
     0
  9
$VISRETAIN
 70
     1
  9
$PLINEGEN
 70
     0
  9
$PSLTSCALE
 70
     1
  9
$TREEDEPTH
 70
  3020
  9
$PICKSTYLE
 70
     1
  9
$CMLSTYLE
  2
STANDARD
  9
$CMLJUST
 70
     0
  9
$CMLSCALE
 40
1.0
  9
$SAVEIMAGES
 70
     1
  0
ENDSEC
  0
SECTION
  2
CLASSES
  0
CLASS
  1
ACDBDICTIONARYWDFLT
  2
AcDbDictionaryWithDefault
  3
ObjectDBX Classes
 90
    32768
280
     0
281
     0
  0
CLASS
  1
VISUALSTYLE
  2
AcDbVisualStyle
  3
ObjectDBX Classes
 90
     4095
280
     0
281
     0
  0
CLASS
  1
XRECORD
  2
AcDbXrecord
  3
AutoCAD 2000
 90
    32768
280
     0
281
     0
  0
CLASS
  1
LWPOLYLINE
  2
AcDbPolyline
  3
AutoCAD 2000
 90
    32768
280
     0
281
     1
  0
CLASS
  1
HATCH
  2
AcDbHatch
  3
AutoCAD 2000
 90
    32768
280
     0
281
     1
  0
CLASS
  1
ACDBPLACEHOLDER
  2
AcDbPlaceHolder
  3
ObjectDBX Classes
 90
        0
280
     0
281
     0
  0
CLASS
  1
LAYOUT
  2
AcDbLayout
  3
ObjectDBX Classes
 90
        0
280
     0
281
     0
  0
ENDSEC
  0
SECTION
  2
TABLES
  0
TABLE
  2
VPORT
  5
8
330
0
100
AcDbSymbolTable
 70
     1
  0
VPORT
  5
29
330
8
100
AcDbSymbolTableRecord
100
AcDbViewportTableRecord
  2
*ACTIVE
 70
     0
 10
0.0
 20
0.0
 11
1.0
 21
1.0
 12
0.0
 22
0.0
 13
0.0
 23
0.0
 14
0.5
 24
0.5
 15
0.5
 25
0.5
 16
0.0
 26
0.0
 36
1.0
 17
105.0008259828644
 27
-148.4999796178229
 37
0.0
 40
296.9999592356459
 41
0.7070763662937379
 42
50.0
 43
0.0
 44
0.0
 50
0.0
 51
0.0
 71
     0
 72
   100
 73
     1
 74
     3
 75
     0
 76
     0
 77
     0
 78
     0
  0
ENDTAB
  0
TABLE
  2
LTYPE
  5
5
330
0
100
AcDbSymbolTable
 70
     1
  0
LTYPE
  5
14
330
5
100
AcDbSymbolTableRecord
100
AcDbLinetypeTableRecord
  2
BYBLOCK
 70
     0
  3

 72
    65
 73
     0
 40
0.0
  0
LTYPE
  5
15
330
5
100
AcDbSymbolTableRecord
100
AcDbLinetypeTableRecord
  2
BYLAYER
 70
     0
  3

 72
    65
 73
     0
 40
0.0
  0
LTYPE
  5
16
330
5
100
AcDbSymbolTableRecord
100
AcDbLinetypeTableRecord
  2
CONTINUOUS
 70
     0
  3
Solid line
 72
    65
 73
     0
 40
0.0
  0
ENDTAB
  0
TABLE
  2
LAYER
  5
2
330
0
100
AcDbSymbolTable
 70
     2
  0
LAYER
  5
10
330
2
100
AcDbSymbolTableRecord
100
AcDbLayerTableRecord
  2
0
 70
     0
 62
     7
  6
CONTINUOUS
  0
LAYER
  5
3B
330
2
100
AcDbSymbolTableRecord
100
AcDbLayerTableRecord
  2
EBENE_1
 70
     0
 62
     7
  6
CONTINUOUS
  0
ENDTAB
  0
TABLE
  2
STYLE
  5
3
330
0
100
AcDbSymbolTable
 70
     1
  0
STYLE
  5
11
330
3
100
AcDbSymbolTableRecord
100
AcDbTextStyleTableRecord
  2
STANDARD
 70
     0
 40
0.0
 41
1.0
 50
0.0
 71
     0
 42
0.2
  3
txt
  4

  0
ENDTAB
  0
TABLE
  2
VIEW
  5
6
330
0
100
AcDbSymbolTable
 70
     0
  0
ENDTAB
  0
TABLE
  2
UCS
  5
7
330
0
100
AcDbSymbolTable
 70
     0
  0
ENDTAB
  0
TABLE
  2
APPID
  5
9
330
0
100
AcDbSymbolTable
 70
     1
  0
APPID
  5
12
330
9
100
AcDbSymbolTableRecord
100
AcDbRegAppTableRecord
  2
ACAD
 70
     0
  0
ENDTAB
  0
TABLE
  2
DIMSTYLE
  5
A
330
0
100
AcDbSymbolTable
 70
     1
  0
DIMSTYLE
105
27
330
A
100
AcDbSymbolTableRecord
100
AcDbDimStyleTableRecord
  2
STANDARD
 70
     0
  3

  4

  5

  6

  7

 40
1.0
 41
0.18
 42
0.0625
 43
0.38
 44
0.18
 45
0.0
 46
0.0
 47
0.0
 48
0.0
140
0.18
141
0.09
142
0.0
143
25.4
144
1.0
145
0.0
146
1.0
147
0.09
 71
     0
 72
     0
 73
     1
 74
     1
 75
     0
 76
     0
 77
     0
 78
     0
170
     0
171
     2
172
     0
173
     0
174
     0
175
     0
176
     0
177
     0
178
     0
270
     2
271
     4
272
     4
273
     2
274
     2
340
11
275
     0
280
     0
281
     0
282
     0
283
     1
284
     0
285
     0
286
     0
287
     3
288
     0
  0
ENDTAB
  0
TABLE
  2
BLOCK_RECORD
  5
1
330
0
100
AcDbSymbolTable
 70
    24
  0
BLOCK_RECORD
  5
1F
330
1
100
AcDbSymbolTableRecord
100
AcDbBlockTableRecord
  2
*MODEL_SPACE
  0
BLOCK_RECORD
  5
1B
330
1
100
AcDbSymbolTableRecord
100
AcDbBlockTableRecord
  2
*PAPER_SPACE
  0
BLOCK_RECORD
  5
1A1
330
1
100
AcDbSymbolTableRecord
100
AcDbBlockTableRecord
  2
*U1
  0
BLOCK_RECORD
  5
1A6
330
1
100
AcDbSymbolTableRecord
100
AcDbBlockTableRecord
  2
*U2
  0
BLOCK_RECORD
  5
1EA
330
1
100
AcDbSymbolTableRecord
100
AcDbBlockTableRecord
  2
*U3
  0
BLOCK_RECORD
  5
22E
330
1
100
AcDbSymbolTableRecord
100
AcDbBlockTableRecord
  2
*U4
  0
BLOCK_RECORD
  5
232
330
1
100
AcDbSymbolTableRecord
100
AcDbBlockTableRecord
  2
*U5
  0
BLOCK_RECORD
  5
236
330
1
100
AcDbSymbolTableRecord
100
AcDbBlockTableRecord
  2
*U6
  0
BLOCK_RECORD
  5
23A
330
1
100
AcDbSymbolTableRecord
100
AcDbBlockTableRecord
  2
*U7
  0
BLOCK_RECORD
  5
23E
330
1
100
AcDbSymbolTableRecord
100
AcDbBlockTableRecord
  2
*U8
  0
BLOCK_RECORD
  5
243
330
1
100
AcDbSymbolTableRecord
100
AcDbBlockTableRecord
  2
*U9
  0
BLOCK_RECORD
  5
248
330
1
100
AcDbSymbolTableRecord
100
AcDbBlockTableRecord
  2
*U10
  0
BLOCK_RECORD
  5
24D
330
1
100
AcDbSymbolTableRecord
100
AcDbBlockTableRecord
  2
*U11
  0
BLOCK_RECORD
  5
252
330
1
100
AcDbSymbolTableRecord
100
AcDbBlockTableRecord
  2
*U12
  0
BLOCK_RECORD
  5
256
330
1
100
AcDbSymbolTableRecord
100
AcDbBlockTableRecord
  2
*U13
  0
BLOCK_RECORD
  5
25A
330
1
100
AcDbSymbolTableRecord
100
AcDbBlockTableRecord
  2
*U14
  0
BLOCK_RECORD
  5
25E
330
1
100
AcDbSymbolTableRecord
100
AcDbBlockTableRecord
  2
*U15
  0
BLOCK_RECORD
  5
262
330
1
100
AcDbSymbolTableRecord
100
AcDbBlockTableRecord
  2
*U16
  0
BLOCK_RECORD
  5
267
330
1
100
AcDbSymbolTableRecord
100
AcDbBlockTableRecord
  2
*U17
  0
BLOCK_RECORD
  5
26C
330
1
100
AcDbSymbolTableRecord
100
AcDbBlockTableRecord
  2
*U18
  0
BLOCK_RECORD
  5
271
330
1
100
AcDbSymbolTableRecord
100
AcDbBlockTableRecord
  2
*U19
  0
BLOCK_RECORD
  5
276
330
1
100
AcDbSymbolTableRecord
100
AcDbBlockTableRecord
  2
*U20
  0
BLOCK_RECORD
  5
27A
330
1
100
AcDbSymbolTableRecord
100
AcDbBlockTableRecord
  2
*U21
  0
BLOCK_RECORD
  5
27E
330
1
100
AcDbSymbolTableRecord
100
AcDbBlockTableRecord
  2
*U22
  0
BLOCK_RECORD
  5
282
330
1
100
AcDbSymbolTableRecord
100
AcDbBlockTableRecord
  2
*U23
  0
ENDTAB
  0
ENDSEC
  0
SECTION
  2
BLOCKS
  0
BLOCK
  5
20
330
1F
100
AcDbEntity
  8
0
100
AcDbBlockBegin
  2
*MODEL_SPACE
 70
     0
 71
     0
 10
0.0
 20
0.0
 30
0.0
  3
*MODEL_SPACE
  1

  0
ENDBLK
  5
21
330
1F
100
AcDbEntity
  8
0
100
AcDbBlockEnd
  0
BLOCK
  5
1C
330
1B
100
AcDbEntity
 67
     1
  8
0
100
AcDbBlockBegin
  2
*PAPER_SPACE
 70
     0
 71
     0
 10
0.0
 20
0.0
 30
0.0
  3
*PAPER_SPACE
  1

  0
ENDBLK
  5
1D
330
1B
100
AcDbEntity
 67
     1
  8
0
100
AcDbBlockEnd
  0
BLOCK
  5
1A4
330
1A1
100
AcDbEntity
  8
0
100
AcDbBlockBegin
  2
*U1
 70
     1
 71
     0
 10
0.0
 20
0.0
 30
0.0
  3
*U1
  1

  0
SOLID
  5
1A2
330
1A1
100
AcDbEntity
  8
EBENE_1
 62
   250
100
AcDbTrace
 10
55.74853514231287
 20
-153.1794273805237
 30
0.0
 11
52.74423962440075
 21
-151.0564127226526
 31
0.0
 12
55.74853514231287
 22
-149.5043972065475
 32
0.0
 13
55.74853514231287
 23
-149.5043972065475
 33
0.0
  0
SOLID
  5
1A3
330
1A1
100
AcDbEntity
  8
EBENE_1
 62
   250
100
AcDbTrace
 10
55.74853514231287
 20
-153.1794273805237
 30
0.0
 11
55.74853514231287
 21
-149.5043972065475
 31
0.0
 12
56.05497638572584
 22
-153.3959770666857
 32
0.0
 13
56.05497638572584
 23
-153.3959770666857
 33
0.0
  0
ENDBLK
  5
1A5
330
1A1
100
AcDbEntity
  8
0
100
AcDbBlockEnd
  0
BLOCK
  5
1E8
330
1A6
100
AcDbEntity
  8
0
100
AcDbBlockBegin
  2
*U2
 70
     1
 71
     0
 10
0.0
 20
0.0
 30
0.0
  3
*U2
  1

  0
SOLID
  5
1A7
330
1A6
100
AcDbEntity
  8
EBENE_1
 62
   250
100
AcDbTrace
 10
130.3851507920565
 20
-162.5799126112647
 30
0.0
 11
130.323828092419
 21
-162.5799126112647
 31
0.0
 12
130.3851507920565
 22
-161.701413262526
 32
0.0
 13
130.3851507920565
 23
-161.701413262526
 33
0.0
  0
SOLID
  5
1A8
330
1A6
100
AcDbEntity
  8
EBENE_1
 62
   250
100
AcDbTrace
 10
-130.3851507920565
 20
-162.5799126112647
 30
0.0
 11
-130.3851507920565
 21
-161.701413262526
 31
0.0
 12
-130.5380592019846
 22
-162.5799126112647
 32
0.0
 13
-130.5380592019846
 23
-162.5799126112647
 33
0.0
210
0.0
220
0.0
230
-1.0
  0
SOLID
  5
1A9
330
1A6
100
AcDbEntity
  8
EBENE_1
 62
   250
100
AcDbTrace
 10
130.5380592019846
 20
-162.5799126112647
 30
0.0
 11
130.3851507920565
 21
-161.701413262526
 31
0.0
 12
130.5380592019846
 22
-160.9349548785217
 32
0.0
 13
130.5380592019846
 23
-160.9349548785217
 33
0.0
  0
SOLID
  5
1AA
330
1A6
100
AcDbEntity
  8
EBENE_1
 62
   250
100
AcDbTrace
 10
-130.5380592019846
 20
-162.5799126112647
 30
0.0
 11
-130.5380592019846
 21
-160.9349548785217
 31
0.0
 12
-130.840247905658
 22
-162.5799126112647
 32
0.0
 13
-130.840247905658
 23
-162.5799126112647
 33
0.0
210
0.0
220
0.0
230
-1.0
  0
SOLID
  5
1AB
330
1A6
100
AcDbEntity
  8
EBENE_1
 62
   250
100
AcDbTrace
 10
130.840247905658
 20
-162.5799126112647
 30
0.0
 11
130.5380592019846
 21
-160.9349548785217
 31
0.0
 12
130.840247905658
 22
-160.2451714009109
 32
0.0
 13
130.840247905658
 23
-160.2451714009109
 33
0.0
  0
SOLID
  5
1AC
330
1A6
100
AcDbEntity
  8
EBENE_1
 62
   250
100
AcDbTrace
 10
-130.840247905658
 20
-162.5799126112647
 30
0.0
 11
-130.840247905658
 21
-160.2451714009109
 31
0.0
 12
-131.075504863607
 22
-162.5799126112647
 32
0.0
 13
-131.075504863607
 23
-162.5799126112647
 33
0.0
210
0.0
220
0.0
230
-1.0
  0
SOLID
  5
1AD
330
1A6
100
AcDbEntity
  8
EBENE_1
 62
   250
100
AcDbTrace
 10
131.075504863607
 20
-162.5799126112647
 30
0.0
 11
130.840247905658
 21
-160.2451714009109
 31
0.0
 12
131.075504863607
 22
-159.9836563558103
 32
0.0
 13
131.075504863607
 23
-159.9836563558103
 33
0.0
  0
SOLID
  5
1AE
330
1A6
100
AcDbEntity
  8
EBENE_1
 62
   250
100
AcDbTrace
 10
-131.075504863607
 20
-162.5799126112647
 30
0.0
 11
-131.075504863607
 21
-159.9836563558103
 31
0.0
 12
-131.3480980438774
 22
-162.5799126112647
 32
0.0
 13
-131.3480980438774
 23
-162.5799126112647
 33
0.0
210
0.0
220
0.0
230
-1.0
  0
SOLID
  5
1AF
330
1A6
100
AcDbEntity
  8
EBENE_1
 62
   250
100
AcDbTrace
 10
131.3480980438774
 20
-162.5799126112647
 30
0.0
 11
131.075504863607
 21
-159.9836563558103
 31
0.0
 12
131.3480980438774
 22
-159.8029503316856
 32
0.0
 13
131.3480980438774
 23
-159.8029503316856
 33
0.0
  0
SOLID
  5
1B0
330
1A6
100
AcDbEntity
  8
EBENE_1
 62
   250
100
AcDbTrace
 10
-131.3480980438774
 20
-162.5799126112647
 30
0.0
 11
-131.3480980438774
 21
-159.8029503316856
 31
0.0
 12
-131.7387288082112
 22
-162.5799126112647
 32
0.0
 13
-131.7387288082112
 23
-162.5799126112647
 33
0.0
210
0.0
220
0.0
230
-1.0
  0
SOLID
  5
1B1
330
1A6
100
AcDbEntity
  8
EBENE_1
 62
   250
100
AcDbTrace
 10
131.7387288082112
 20
-162.5799126112647
 30
0.0
 11
131.3480980438774
 21
-159.8029503316856
 31
0.0
 12
131.7387288082112
 22
-159.6547396864547
 32
0.0
 13
131.7387288082112
 23
-159.6547396864547
 33
0.0
  0
SOLID
  5
1B2
330
1A6
100
AcDbEntity
  8
EBENE_1
 62
   250
100
AcDbTrace
 10
-131.7387288082112
 20
-162.5799126112647
 30
0.0
 11
-131.7387288082112
 21
-159.6547396864547
 31
0.0
 12
-131.8263634246332
 22
-162.065904364802
 32
0.0
 13
-131.8263634246332
 23
-162.065904364802
 33
0.0
210
0.0
220
0.0
230
-1.0
  0
SOLID
  5
1B3
330
1A6
100
AcDbEntity
  8
EBENE_1
 62
   250
100
AcDbTrace
 10
131.8263634246332
 20
-162.065904364802
 30
0.0
 11
131.7387288082112
 21
-159.6547396864547
 31
0.0
 12
131.8263634246332
 22
-159.6214899165176
 32
0.0
 13
131.8263634246332
 23
-159.6214899165176
 33
0.0
  0
SOLID
  5
1B4
330
1A6
100
AcDbEntity
  8
EBENE_1
 62
   250
100
AcDbTrace
 10
-131.8263634246332
 20
-162.065904364802
 30
0.0
 11
-131.8263634246332
 21
-159.6214899165176
 31
0.0
 12
-131.9518079639739
 22
-161.7375023760196
 32
0.0
 13
-131.9518079639739
 23
-161.7375023760196
 33
0.0
210
0.0
220
0.0
230
-1.0
  0
SOLID
  5
1B5
330
1A6
100
AcDbEntity
  8
EBENE_1
 62
   250
100
AcDbTrace
 10
131.9518079639739
 20
-161.7375023760196
 30
0.0
 11
131.8263634246332
 21
-159.6214899165176
 31
0.0
 12
131.9518079639739
 22
-159.57389454561
 32
0.0
 13
131.9518079639739
 23
-159.57389454561
 33
0.0
  0
SOLID
  5
1B6
330
1A6
100
AcDbEntity
  8
EBENE_1
 62
   250
100
AcDbTrace
 10
-131.9518079639739
 20
-161.7375023760196
 30
0.0
 11
-131.9518079639739
 21
-159.57389454561
 31
0.0
 12
-132.0760036562171
 22
-161.4123697513136
 32
0.0
 13
-132.0760036562171
 23
-161.4123697513136
 33
0.0
210
0.0
220
0.0
230
-1.0
  0
SOLID
  5
1B7
330
1A6
100
AcDbEntity
  8
EBENE_1
 62
   250
100
AcDbTrace
 10
132.0760036562171
 20
-161.4123697513136
 30
0.0
 11
131.9518079639739
 21
-159.57389454561
 31
0.0
 12
132.0760036562171
 22
-159.5244274582482
 32
0.0
 13
132.0760036562171
 23
-159.5244274582482
 33
0.0
  0
SOLID
  5
1B8
330
1A6
100
AcDbEntity
  8
EBENE_1
 62
   250
100
AcDbTrace
 10
-132.0760036562171
 20
-161.4123697513136
 30
0.0
 11
-132.0760036562171
 21
-159.5244274582482
 31
0.0
 12
-132.3032231794842
 22
-161.1194888612823
 32
0.0
 13
-132.3032231794842
 23
-161.1194888612823
 33
0.0
210
0.0
220
0.0
230
-1.0
  0
SOLID
  5
1B9
330
1A6
100
AcDbEntity
  8
EBENE_1
 62
   250
100
AcDbTrace
 10
132.3032231794842
 20
-161.1194888612823
 30
0.0
 11
132.0760036562171
 21
-159.5244274582482
 31
0.0
 12
132.3032231794842
 22
-159.4339260261556
 32
0.0
 13
132.3032231794842
 23
-159.4339260261556
 33
0.0
  0
SOLID
  5
1BA
330
1A6
100
AcDbEntity
  8
EBENE_1
 62
   250
100
AcDbTrace
 10
-132.3032231794842
 20
-161.1194888612823
 30
0.0
 11
-132.3032231794842
 21
-159.4339260261556
 31
0.0
 12
-132.5444074511304
 22
-160.9363733335969
 32
0.0
 13
-132.5444074511304
 23
-160.9363733335969
 33
0.0
210
0.0
220
0.0
230
-1.0
  0
SOLID
  5
1BB
330
1A6
100
AcDbEntity
  8
EBENE_1
 62
   250
100
AcDbTrace
 10
132.5444074511304
 20
-160.9363733335969
 30
0.0
 11
132.3032231794842
 21
-159.4339260261556
 31
0.0
 12
132.5444074511304
 22
-159.3378624411768
 32
0.0
 13
132.5444074511304
 23
-159.3378624411768
 33
0.0
  0
SOLID
  5
1BC
330
1A6
100
AcDbEntity
  8
EBENE_1
 62
   250
100
AcDbTrace
 10
-132.5444074511304
 20
-160.9363733335969
 30
0.0
 11
-132.5444074511304
 21
-159.3378624411768
 31
0.0
 12
-132.5917721310909
 22
-160.9004124133204
 32
0.0
 13
-132.5917721310909
 23
-160.9004124133204
 33
0.0
210
0.0
220
0.0
230
-1.0
  0
SOLID
  5
1BD
330
1A6
100
AcDbEntity
  8
EBENE_1
 62
   250
100
AcDbTrace
 10
132.5917721310909
 20
-160.9004124133204
 30
0.0
 11
132.5444074511304
 21
-159.3378624411768
 31
0.0
 12
132.5917721310909
 22
-159.3031815612807
 32
0.0
 13
132.5917721310909
 23
-159.3031815612807
 33
0.0
  0
SOLID
  5
1BE
330
1A6
100
AcDbEntity
  8
EBENE_1
 62
   250
100
AcDbTrace
 10
-132.5917721310909
 20
-160.9004124133204
 30
0.0
 11
-132.5917721310909
 21
-159.3031815612807
 31
0.0
 12
-132.8031125902259
 22
-160.8079958184903
 32
0.0
 13
-132.8031125902259
 23
-160.8079958184903
 33
0.0
210
0.0
220
0.0
230
-1.0
  0
SOLID
  5
1BF
330
1A6
100
AcDbEntity
  8
EBENE_1
 62
   250
100
AcDbTrace
 10
132.8031125902259
 20
-160.8079958184903
 30
0.0
 11
132.5917721310909
 21
-159.3031815612807
 31
0.0
 12
132.8031125902259
 22
-159.148436019105
 32
0.0
 13
132.8031125902259
 23
-159.148436019105
 33
0.0
  0
SOLID
  5
1C0
330
1A6
100
AcDbEntity
  8
EBENE_1
 62
   250
100
AcDbTrace
 10
-132.8031125902259
 20
-160.8079958184903
 30
0.0
 11
-132.8031125902259
 21
-159.148436019105
 31
0.0
 12
-133.01892629053
 22
-160.7136231300737
 32
0.0
 13
-133.01892629053
 23
-160.7136231300737
 33
0.0
210
0.0
220
0.0
230
-1.0
  0
SOLID
  5
1C1
330
1A6
100
AcDbEntity
  8
EBENE_1
 62
   250
100
AcDbTrace
 10
133.01892629053
 20
-160.7136231300737
 30
0.0
 11
132.8031125902259
 21
-159.148436019105
 31
0.0
 12
133.01892629053
 22
-158.8747124168785
 32
0.0
 13
133.01892629053
 23
-158.8747124168785
 33
0.0
  0
SOLID
  5
1C2
330
1A6
100
AcDbEntity
  8
EBENE_1
 62
   250
100
AcDbTrace
 10
-133.01892629053
 20
-160.7136231300737
 30
0.0
 11
-133.01892629053
 21
-158.8747124168785
 31
0.0
 12
-133.2302290689331
 22
-160.6212230125663
 32
0.0
 13
-133.2302290689331
 23
-160.6212230125663
 33
0.0
210
0.0
220
0.0
230
-1.0
  0
SOLID
  5
1C3
330
1A6
100
AcDbEntity
  8
EBENE_1
 62
   250
100
AcDbTrace
 10
133.2302290689331
 20
-160.6212230125663
 30
0.0
 11
133.01892629053
 21
-158.8747124168785
 31
0.0
 12
133.2302290689331
 22
-158.308118017674
 32
0.0
 13
133.2302290689331
 23
-158.308118017674
 33
0.0
  0
SOLID
  5
1C4
330
1A6
100
AcDbEntity
  8
EBENE_1
 62
   250
100
AcDbTrace
 10
-133.2302290689331
 20
-160.6212230125663
 30
0.0
 11
-133.2302290689331
 21
-158.308118017674
 31
0.0
 12
-133.2622792228693
 22
-160.6072078727171
 32
0.0
 13
-133.2622792228693
 23
-160.6072078727171
 33
0.0
210
0.0
220
0.0
230
-1.0
  0
SOLID
  5
1C5
330
1A6
100
AcDbEntity
  8
EBENE_1
 62
   250
100
AcDbTrace
 10
133.2622792228693
 20
-160.6072078727171
 30
0.0
 11
133.2302290689331
 21
-158.308118017674
 31
0.0
 12
133.2622792228693
 22
-158.106128862762
 32
0.0
 13
133.2622792228693
 23
-158.106128862762
 33
0.0
  0
SOLID
  5
1C6
330
1A6
100
AcDbEntity
  8
EBENE_1
 62
   250
100
AcDbTrace
 10
-133.2622792228693
 20
-160.6072078727171
 30
0.0
 11
-133.2622792228693
 21
-158.106128862762
 31
0.0
 12
-133.3282958651054
 22
-160.583902071904
 32
0.0
 13
-133.3282958651054
 23
-160.583902071904
 33
0.0
210
0.0
220
0.0
230
-1.0
  0
SOLID
  5
1C7
330
1A6
100
AcDbEntity
  8
EBENE_1
 62
   250
100
AcDbTrace
 10
133.3282958651054
 20
-160.583902071904
 30
0.0
 11
133.2622792228693
 21
-158.106128862762
 31
0.0
 12
133.3282958651054
 22
-157.6900732705818
 32
0.0
 13
133.3282958651054
 23
-157.6900732705818
 33
0.0
  0
SOLID
  5
1C8
330
1A6
100
AcDbEntity
  8
EBENE_1
 62
   250
100
AcDbTrace
 10
-133.3282958651054
 20
-160.583902071904
 30
0.0
 11
-133.3282958651054
 21
-157.6900732705818
 31
0.0
 12
-133.3555121194389
 22
-160.5742939400619
 32
0.0
 13
-133.3555121194389
 23
-160.5742939400619
 33
0.0
210
0.0
220
0.0
230
-1.0
  0
SOLID
  5
1C9
330
1A6
100
AcDbEntity
  8
EBENE_1
 62
   250
100
AcDbTrace
 10
133.3555121194389
 20
-160.5742939400619
 30
0.0
 11
133.3282958651054
 21
-157.6900732705818
 31
0.0
 12
133.3555121194389
 22
-156.9888671482528
 32
0.0
 13
133.3555121194389
 23
-156.9888671482528
 33
0.0
  0
SOLID
  5
1CA
330
1A6
100
AcDbEntity
  8
EBENE_1
 62
   250
100
AcDbTrace
 10
-133.3555121194389
 20
-160.5742939400619
 30
0.0
 11
-133.3555121194389
 21
-145.47019039332
 31
0.0
 12
-133.5130821741955
 22
-160.5186671134635
 32
0.0
 13
-133.5130821741955
 23
-160.5186671134635
 33
0.0
210
0.0
220
0.0
230
-1.0
  0
SOLID
  5
1CB
330
1A6
100
AcDbEntity
  8
EBENE_1
 62
   250
100
AcDbTrace
 10
133.5130821741955
 20
-160.5186671134635
 30
0.0
 11
133.3555121194389
 21
-145.47019039332
 31
0.0
 12
133.5130821741955
 22
-144.9715343536768
 32
0.0
 13
133.5130821741955
 23
-144.9715343536768
 33
0.0
  0
SOLID
  5
1CC
330
1A6
100
AcDbEntity
  8
EBENE_1
 62
   250
100
AcDbTrace
 10
-133.5130821741955
 20
-160.5186671134635
 30
0.0
 11
-133.5130821741955
 21
-144.9715343536768
 31
0.0
 12
-133.8491943024752
 22
-160.4000097257619
 32
0.0
 13
-133.8491943024752
 23
-160.4000097257619
 33
0.0
210
0.0
220
0.0
230
-1.0
  0
SOLID
  5
1CD
330
1A6
100
AcDbEntity
  8
EBENE_1
 62
   250
100
AcDbTrace
 10
133.8491943024752
 20
-160.4000097257619
 30
0.0
 11
133.5130821741955
 21
-144.9715343536768
 31
0.0
 12
133.8491943024752
 22
-144.5717094907668
 32
0.0
 13
133.8491943024752
 23
-144.5717094907668
 33
0.0
  0
SOLID
  5
1CE
330
1A6
100
AcDbEntity
  8
EBENE_1
 62
   250
100
AcDbTrace
 10
-133.8491943024752
 20
-160.4000097257619
 30
0.0
 11
-133.8491943024752
 21
-144.5717094907668
 31
0.0
 12
-133.9063667386453
 22
-160.379826187729
 32
0.0
 13
-133.9063667386453
 23
-160.379826187729
 33
0.0
210
0.0
220
0.0
230
-1.0
  0
SOLID
  5
1CF
330
1A6
100
AcDbEntity
  8
EBENE_1
 62
   250
100
AcDbTrace
 10
133.9063667386453
 20
-160.379826187729
 30
0.0
 11
133.8491943024752
 21
-144.5717094907668
 31
0.0
 12
133.9063667386453
 22
-144.5383246059608
 32
0.0
 13
133.9063667386453
 23
-144.5383246059608
 33
0.0
  0
SOLID
  5
1D0
330
1A6
100
AcDbEntity
  8
EBENE_1
 62
   250
100
AcDbTrace
 10
-133.9063667386453
 20
-160.379826187729
 30
0.0
 11
-133.9063667386453
 21
-144.5383246059608
 31
0.0
 12
-134.1618912202488
 22
-160.2430283092858
 32
0.0
 13
-134.1618912202488
 23
-160.2430283092858
 33
0.0
210
0.0
220
0.0
230
-1.0
  0
SOLID
  5
1D1
330
1A6
100
AcDbEntity
  8
EBENE_1
 62
   250
100
AcDbTrace
 10
134.1618912202488
 20
-160.2430283092858
 30
0.0
 11
133.9063667386453
 21
-144.5383246059608
 31
0.0
 12
134.1618912202488
 22
-144.3891153723701
 32
0.0
 13
134.1618912202488
 23
-144.3891153723701
 33
0.0
  0
SOLID
  5
1D2
330
1A6
100
AcDbEntity
  8
EBENE_1
 62
   250
100
AcDbTrace
 10
-134.1618912202488
 20
-160.2430283092858
 30
0.0
 11
-134.1618912202488
 21
-144.3891153723701
 31
0.0
 12
-134.3428764855115
 22
-160.0653374165809
 32
0.0
 13
-134.3428764855115
 23
-160.0653374165809
 33
0.0
210
0.0
220
0.0
230
-1.0
  0
SOLID
  5
1D3
330
1A6
100
AcDbEntity
  8
EBENE_1
 62
   250
100
AcDbTrace
 10
134.3428764855115
 20
-160.0653374165809
 30
0.0
 11
134.1618912202488
 21
-144.3891153723701
 31
0.0
 12
134.3428764855115
 22
-144.2834320634692
 32
0.0
 13
134.3428764855115
 23
-144.2834320634692
 33
0.0
  0
SOLID
  5
1D4
330
1A6
100
AcDbEntity
  8
EBENE_1
 62
   250
100
AcDbTrace
 10
-134.3428764855115
 20
-160.0653374165809
 30
0.0
 11
-134.3428764855115
 21
-144.2834320634692
 31
0.0
 12
-134.4115200130551
 22
-159.8695474561295
 32
0.0
 13
-134.4115200130551
 23
-159.8695474561295
 33
0.0
210
0.0
220
0.0
230
-1.0
  0
SOLID
  5
1D5
330
1A6
100
AcDbEntity
  8
EBENE_1
 62
   250
100
AcDbTrace
 10
134.4115200130551
 20
-159.8695474561295
 30
0.0
 11
134.3428764855115
 21
-144.2834320634692
 31
0.0
 12
134.4115200130551
 22
-144.2433488273289
 32
0.0
 13
134.4115200130551
 23
-144.2433488273289
 33
0.0
  0
SOLID
  5
1D6
330
1A6
100
AcDbEntity
  8
EBENE_1
 62
   250
100
AcDbTrace
 10
-134.4115200130551
 20
-159.8695474561295
 30
0.0
 11
-134.4115200130551
 21
-144.2433488273289
 31
0.0
 12
-134.5506103603104
 22
-159.4728240568115
 32
0.0
 13
-134.5506103603104
 23
-159.4728240568115
 33
0.0
210
0.0
220
0.0
230
-1.0
  0
SOLID
  5
1D7
330
1A6
100
AcDbEntity
  8
EBENE_1
 62
   250
100
AcDbTrace
 10
134.5506103603104
 20
-159.4728240568115
 30
0.0
 11
134.4115200130551
 21
-144.2433488273289
 31
0.0
 12
134.5506103603104
 22
-144.2367302992233
 32
0.0
 13
134.5506103603104
 23
-144.2367302992233
 33
0.0
  0
SOLID
  5
1D8
330
1A6
100
AcDbEntity
  8
EBENE_1
 62
   250
100
AcDbTrace
 10
-134.5506103603104
 20
-159.4728240568115
 30
0.0
 11
-134.5506103603104
 21
-144.2367302992233
 31
0.0
 12
-134.6572845122341
 22
-158.6953090694842
 32
0.0
 13
-134.6572845122341
 23
-158.6953090694842
 33
0.0
210
0.0
220
0.0
230
-1.0
  0
SOLID
  5
1D9
330
1A6
100
AcDbEntity
  8
EBENE_1
 62
   250
100
AcDbTrace
 10
134.6572845122341
 20
-158.6953090694842
 30
0.0
 11
134.5506103603104
 21
-144.2367302992233
 31
0.0
 12
134.6572845122341
 22
-144.2316542757135
 32
0.0
 13
134.6572845122341
 23
-144.2316542757135
 33
0.0
  0
SOLID
  5
1DA
330
1A6
100
AcDbEntity
  8
EBENE_1
 62
   250
100
AcDbTrace
 10
-134.6572845122341
 20
-158.6953090694842
 30
0.0
 11
-134.6572845122341
 21
-144.2316542757135
 31
0.0
 12
-134.7021999446231
 22
-157.72990718713
 32
0.0
 13
-134.7021999446231
 23
-157.72990718713
 33
0.0
210
0.0
220
0.0
230
-1.0
  0
SOLID
  5
1DB
330
1A6
100
AcDbEntity
  8
EBENE_1
 62
   250
100
AcDbTrace
 10
134.7021999446231
 20
-157.72990718713
 30
0.0
 11
134.6572845122341
 21
-144.2316542757135
 31
0.0
 12
134.7021999446231
 22
-144.2295170026567
 32
0.0
 13
134.7021999446231
 23
-144.2295170026567
 33
0.0
  0
SOLID
  5
1DC
330
1A6
100
AcDbEntity
  8
EBENE_1
 62
   250
100
AcDbTrace
 10
-134.7021999446231
 20
-146.1431897963635
 30
0.0
 11
-134.7021999446231
 21
-144.2295170026567
 31
0.0
 12
-134.7443162369302
 22
-145.8786925904835
 32
0.0
 13
-134.7443162369302
 23
-145.8786925904835
 33
0.0
210
0.0
220
0.0
230
-1.0
  0
SOLID
  5
1DD
330
1A6
100
AcDbEntity
  8
EBENE_1
 62
   250
100
AcDbTrace
 10
134.7443162369302
 20
-145.8786925904835
 30
0.0
 11
134.7021999446231
 21
-144.2295170026567
 31
0.0
 12
134.7443162369302
 22
-144.2275129249487
 32
0.0
 13
134.7443162369302
 23
-144.2275129249487
 33
0.0
  0
SOLID
  5
1DE
330
1A6
100
AcDbEntity
  8
EBENE_1
 62
   250
100
AcDbTrace
 10
-134.7443162369302
 20
-145.8786925904835
 30
0.0
 11
-134.7443162369302
 21
-144.2275129249487
 31
0.0
 12
-134.8820339289531
 22
-145.6498521228757
 32
0.0
 13
-134.8820339289531
 23
-145.6498521228757
 33
0.0
210
0.0
220
0.0
230
-1.0
  0
SOLID
  5
1DF
330
1A6
100
AcDbEntity
  8
EBENE_1
 62
   250
100
AcDbTrace
 10
134.8820339289531
 20
-145.6498521228757
 30
0.0
 11
134.7443162369302
 21
-144.2275129249487
 31
0.0
 12
134.8820339289531
 22
-144.2209597137928
 32
0.0
 13
134.8820339289531
 23
-144.2209597137928
 33
0.0
  0
SOLID
  5
1E0
330
1A6
100
AcDbEntity
  8
EBENE_1
 62
   250
100
AcDbTrace
 10
-134.8820339289531
 20
-145.6498521228757
 30
0.0
 11
-134.8820339289531
 21
-144.2209597137928
 31
0.0
 12
-135.0622124228317
 22
-145.4873121140719
 32
0.0
 13
-135.0622124228317
 23
-145.4873121140719
 33
0.0
210
0.0
220
0.0
230
-1.0
  0
SOLID
  5
1E1
330
1A6
100
AcDbEntity
  8
EBENE_1
 62
   250
100
AcDbTrace
 10
135.0622124228317
 20
-145.4873121140719
 30
0.0
 11
134.8820339289531
 21
-144.2209597137928
 31
0.0
 12
135.0622124228317
 22
-144.2123860316553
 32
0.0
 13
135.0622124228317
 23
-144.2123860316553
 33
0.0
  0
SOLID
  5
1E2
330
1A6
100
AcDbEntity
  8
EBENE_1
 62
   250
100
AcDbTrace
 10
-135.0622124228317
 20
-145.4873121140719
 30
0.0
 11
-135.0622124228317
 21
-144.2123860316553
 31
0.0
 12
-135.0804283652099
 22
-145.470879412417
 32
0.0
 13
-135.0804283652099
 23
-145.470879412417
 33
0.0
210
0.0
220
0.0
230
-1.0
  0
SOLID
  5
1E3
330
1A6
100
AcDbEntity
  8
EBENE_1
 62
   250
100
AcDbTrace
 10
-135.0804283652099
 20
-145.470879412417
 30
0.0
 11
-135.0622124228317
 21
-144.2123860316553
 31
0.0
 12
-135.0804283652099
 22
-144.2123860316553
 32
0.0
 13
-135.0804283652099
 23
-144.2123860316553
 33
0.0
210
0.0
220
0.0
230
-1.0
  0
SOLID
  5
1E4
330
1A6
100
AcDbEntity
  8
EBENE_1
 62
   250
100
AcDbTrace
 10
-135.0804283652099
 20
-145.470879412417
 30
0.0
 11
-135.0804283652099
 21
-144.2123860316553
 31
0.0
 12
-135.3312743802297
 22
-145.3797566368322
 32
0.0
 13
-135.3312743802297
 23
-145.3797566368322
 33
0.0
210
0.0
220
0.0
230
-1.0
  0
SOLID
  5
1E5
330
1A6
100
AcDbEntity
  8
EBENE_1
 62
   250
100
AcDbTrace
 10
-135.3312743802297
 20
-145.3797566368322
 30
0.0
 11
-135.0804283652099
 21
-144.2123860316553
 31
0.0
 12
-135.3312743802297
 22
-144.2123860316553
 32
0.0
 13
-135.3312743802297
 23
-144.2123860316553
 33
0.0
210
0.0
220
0.0
230
-1.0
  0
SOLID
  5
1E6
330
1A6
100
AcDbEntity
  8
EBENE_1
 62
   250
100
AcDbTrace
 10
135.3312743802297
 20
-145.3797566368322
 30
0.0
 11
135.3312743802297
 21
-144.2123860316553
 31
0.0
 12
136.0051350571445
 22
-145.47019039332
 32
0.0
 13
136.0051350571445
 23
-145.47019039332
 33
0.0
  0
SOLID
  5
1E7
330
1A6
100
AcDbEntity
  8
EBENE_1
 62
   250
100
AcDbTrace
 10
-136.0051350571445
 20
-145.47019039332
 30
0.0
 11
-135.3312743802297
 21
-144.2123860316553
 31
0.0
 12
-136.0051350571445
 22
-144.2123860316553
 32
0.0
 13
-136.0051350571445
 23
-144.2123860316553
 33
0.0
210
0.0
220
0.0
230
-1.0
  0
ENDBLK
  5
1E9
330
1A6
100
AcDbEntity
  8
0
100
AcDbBlockEnd
  0
BLOCK
  5
22C
330
1EA
100
AcDbEntity
  8
0
100
AcDbBlockBegin
  2
*U3
 70
     1
 71
     0
 10
0.0
 20
0.0
 30
0.0
  3
*U3
  1

  0
SOLID
  5
1EB
330
1EA
100
AcDbEntity
  8
EBENE_1
 62
   250
100
AcDbTrace
 10
-119.7477294622506
 20
-145.47019039332
 30
0.0
 11
-119.7477294622506
 21
-144.2123860316553
 31
0.0
 12
-120.4215901391654
 22
-145.3797566368322
 32
0.0
 13
-120.4215901391654
 23
-145.3797566368322
 33
0.0
210
0.0
220
0.0
230
-1.0
  0
SOLID
  5
1EC
330
1EA
100
AcDbEntity
  8
EBENE_1
 62
   250
100
AcDbTrace
 10
-120.4215901391654
 20
-145.3797566368322
 30
0.0
 11
-119.7477294622506
 21
-144.2123860316553
 31
0.0
 12
-120.4215901391654
 22
-144.2123860316553
 32
0.0
 13
-120.4215901391654
 23
-144.2123860316553
 33
0.0
210
0.0
220
0.0
230
-1.0
  0
SOLID
  5
1ED
330
1EA
100
AcDbEntity
  8
EBENE_1
 62
   250
100
AcDbTrace
 10
120.4215901391654
 20
-145.3797566368322
 30
0.0
 11
120.4215901391654
 21
-144.2123860316553
 31
0.0
 12
120.6725653452659
 22
-145.470879412417
 32
0.0
 13
120.6725653452659
 23
-145.470879412417
 33
0.0
  0
SOLID
  5
1EE
330
1EA
100
AcDbEntity
  8
EBENE_1
 62
   250
100
AcDbTrace
 10
-120.6725653452659
 20
-145.470879412417
 30
0.0
 11
-120.4215901391654
 21
-144.2123860316553
 31
0.0
 12
-120.6725653452659
 22
-144.2123860316553
 32
0.0
 13
-120.6725653452659
 23
-144.2123860316553
 33
0.0
210
0.0
220
0.0
230
-1.0
  0
SOLID
  5
1EF
330
1EA
100
AcDbEntity
  8
EBENE_1
 62
   250
100
AcDbTrace
 10
120.6725653452659
 20
-145.470879412417
 30
0.0
 11
120.6725653452659
 21
-144.2123860316553
 31
0.0
 12
120.690996606112
 22
-145.4875171882807
 32
0.0
 13
120.690996606112
 23
-145.4875171882807
 33
0.0
  0
SOLID
  5
1F0
330
1EA
100
AcDbEntity
  8
EBENE_1
 62
   250
100
AcDbTrace
 10
-120.690996606112
 20
-145.4875171882807
 30
0.0
 11
-120.6725653452659
 21
-144.2123860316553
 31
0.0
 12
-120.690996606112
 22
-144.2123860316553
 32
0.0
 13
-120.690996606112
 23
-144.2123860316553
 33
0.0
210
0.0
220
0.0
230
-1.0
  0
SOLID
  5
1F1
330
1EA
100
AcDbEntity
  8
EBENE_1
 62
   250
100
AcDbTrace
 10
120.690996606112
 20
-145.4875171882807
 30
0.0
 11
120.690996606112
 21
-144.2123860316553
 31
0.0
 12
120.870830590442
 22
-145.6498521228757
 32
0.0
 13
120.870830590442
 23
-145.6498521228757
 33
0.0
  0
SOLID
  5
1F2
330
1EA
100
AcDbEntity
  8
EBENE_1
 62
   250
100
AcDbTrace
 10
-120.870830590442
 20
-145.6498521228757
 30
0.0
 11
-120.690996606112
 21
-144.2123860316553
 31
0.0
 12
-120.870830590442
 22
-144.2209455864503
 32
0.0
 13
-120.870830590442
 23
-144.2209455864503
 33
0.0
210
0.0
220
0.0
230
-1.0
  0
SOLID
  5
1F3
330
1EA
100
AcDbEntity
  8
EBENE_1
 62
   250
100
AcDbTrace
 10
120.870830590442
 20
-145.6498521228757
 30
0.0
 11
120.870830590442
 21
-144.2209455864503
 31
0.0
 12
121.0087636009327
 22
-145.8786925904835
 32
0.0
 13
121.0087636009327
 23
-145.8786925904835
 33
0.0
  0
SOLID
  5
1F4
330
1EA
100
AcDbEntity
  8
EBENE_1
 62
   250
100
AcDbTrace
 10
-121.0087636009327
 20
-145.8786925904835
 30
0.0
 11
-120.870830590442
 21
-144.2209455864503
 31
0.0
 12
-121.0087636009327
 22
-144.2275107813756
 32
0.0
 13
-121.0087636009327
 23
-144.2275107813756
 33
0.0
210
0.0
220
0.0
230
-1.0
  0
SOLID
  5
1F5
330
1EA
100
AcDbEntity
  8
EBENE_1
 62
   250
100
AcDbTrace
 10
121.0087636009327
 20
-145.8786925904835
 30
0.0
 11
121.0087636009327
 21
-144.2275107813756
 31
0.0
 12
121.0503200652235
 22
-146.1431897963635
 32
0.0
 13
121.0503200652235
 23
-146.1431897963635
 33
0.0
  0
SOLID
  5
1F6
330
1EA
100
AcDbEntity
  8
EBENE_1
 62
   250
100
AcDbTrace
 10
-121.0503200652235
 20
-146.1431897963635
 30
0.0
 11
-121.0087636009327
 21
-144.2275107813756
 31
0.0
 12
-121.0503200652235
 22
-144.2294887436307
 32
0.0
 13
-121.0503200652235
 23
-144.2294887436307
 33
0.0
210
0.0
220
0.0
230
-1.0
  0
SOLID
  5
1F7
330
1EA
100
AcDbEntity
  8
EBENE_1
 62
   250
100
AcDbTrace
 10
121.0503200652235
 20
-157.72990718713
 30
0.0
 11
121.0503200652235
 21
-144.2294887436307
 31
0.0
 12
121.0952354976125
 22
-158.6953090694842
 32
0.0
 13
121.0952354976125
 23
-158.6953090694842
 33
0.0
  0
SOLID
  5
1F8
330
1EA
100
AcDbEntity
  8
EBENE_1
 62
   250
100
AcDbTrace
 10
-121.0952354976125
 20
-158.6953090694842
 30
0.0
 11
-121.0503200652235
 21
-144.2294887436307
 31
0.0
 12
-121.0952354976125
 22
-144.2316265826276
 32
0.0
 13
-121.0952354976125
 23
-144.2316265826276
 33
0.0
210
0.0
220
0.0
230
-1.0
  0
SOLID
  5
1F9
330
1EA
100
AcDbEntity
  8
EBENE_1
 62
   250
100
AcDbTrace
 10
121.0952354976125
 20
-158.6953090694842
 30
0.0
 11
121.0952354976125
 21
-144.2316265826276
 31
0.0
 12
121.2019096495362
 22
-159.4728240568115
 32
0.0
 13
121.2019096495362
 23
-159.4728240568115
 33
0.0
  0
SOLID
  5
1FA
330
1EA
100
AcDbEntity
  8
EBENE_1
 62
   250
100
AcDbTrace
 10
-121.2019096495362
 20
-159.4728240568115
 30
0.0
 11
-121.0952354976125
 21
-144.2316265826276
 31
0.0
 12
-121.2019096495362
 22
-144.2367039502454
 32
0.0
 13
-121.2019096495362
 23
-144.2367039502454
 33
0.0
210
0.0
220
0.0
230
-1.0
  0
SOLID
  5
1FB
330
1EA
100
AcDbEntity
  8
EBENE_1
 62
   250
100
AcDbTrace
 10
121.2019096495362
 20
-159.4728240568115
 30
0.0
 11
121.2019096495362
 21
-144.2367039502454
 31
0.0
 12
121.3415167611143
 22
-159.871021408153
 32
0.0
 13
121.3415167611143
 23
-159.871021408153
 33
0.0
  0
SOLID
  5
1FC
330
1EA
100
AcDbEntity
  8
EBENE_1
 62
   250
100
AcDbTrace
 10
-121.3415167611143
 20
-159.871021408153
 30
0.0
 11
-121.2019096495362
 21
-144.2367039502454
 31
0.0
 12
-121.3415167611143
 22
-144.2433488273289
 32
0.0
 13
-121.3415167611143
 23
-144.2433488273289
 33
0.0
210
0.0
220
0.0
230
-1.0
  0
SOLID
  5
1FD
330
1EA
100
AcDbEntity
  8
EBENE_1
 62
   250
100
AcDbTrace
 10
121.3415167611143
 20
-159.871021408153
 30
0.0
 11
121.3415167611143
 21
-144.2433488273289
 31
0.0
 12
121.4096435243351
 22
-160.0653374165809
 32
0.0
 13
121.4096435243351
 23
-160.0653374165809
 33
0.0
  0
SOLID
  5
1FE
330
1EA
100
AcDbEntity
  8
EBENE_1
 62
   250
100
AcDbTrace
 10
-121.4096435243351
 20
-160.0653374165809
 30
0.0
 11
-121.3415167611143
 21
-144.2433488273289
 31
0.0
 12
-121.4096435243351
 22
-144.2831424974346
 32
0.0
 13
-121.4096435243351
 23
-144.2831424974346
 33
0.0
210
0.0
220
0.0
230
-1.0
  0
SOLID
  5
1FF
330
1EA
100
AcDbEntity
  8
EBENE_1
 62
   250
100
AcDbTrace
 10
121.4096435243351
 20
-160.0653374165809
 30
0.0
 11
121.4096435243351
 21
-144.2831424974346
 31
0.0
 12
121.5908434351954
 22
-160.2430283092858
 32
0.0
 13
121.5908434351954
 23
-160.2430283092858
 33
0.0
  0
SOLID
  5
200
330
1EA
100
AcDbEntity
  8
EBENE_1
 62
   250
100
AcDbTrace
 10
-121.5908434351954
 20
-160.2430283092858
 30
0.0
 11
-121.4096435243351
 21
-144.2831424974346
 31
0.0
 12
-121.5908434351954
 22
-144.3889835668623
 32
0.0
 13
-121.5908434351954
 23
-144.3889835668623
 33
0.0
210
0.0
220
0.0
230
-1.0
  0
SOLID
  5
201
330
1EA
100
AcDbEntity
  8
EBENE_1
 62
   250
100
AcDbTrace
 10
121.5908434351954
 20
-160.2430283092858
 30
0.0
 11
121.5908434351954
 21
-144.3889835668623
 31
0.0
 12
121.846513929635
 22
-160.379826187729
 32
0.0
 13
121.846513929635
 23
-160.379826187729
 33
0.0
  0
SOLID
  5
202
330
1EA
100
AcDbEntity
  8
EBENE_1
 62
   250
100
AcDbTrace
 10
-121.846513929635
 20
-160.379826187729
 30
0.0
 11
-121.5908434351954
 21
-144.3889835668623
 31
0.0
 12
-121.846513929635
 22
-144.5383238089415
 32
0.0
 13
-121.846513929635
 23
-144.5383238089415
 33
0.0
210
0.0
220
0.0
230
-1.0
  0
SOLID
  5
203
330
1EA
100
AcDbEntity
  8
EBENE_1
 62
   250
100
AcDbTrace
 10
121.846513929635
 20
-160.379826187729
 30
0.0
 11
121.846513929635
 21
-144.5383238089415
 31
0.0
 12
121.9036702169199
 22
-160.3999977871208
 32
0.0
 13
121.9036702169199
 23
-160.3999977871208
 33
0.0
  0
SOLID
  5
204
330
1EA
100
AcDbEntity
  8
EBENE_1
 62
   250
100
AcDbTrace
 10
-121.9036702169199
 20
-160.3999977871208
 30
0.0
 11
-121.846513929635
 21
-144.5383238089415
 31
0.0
 12
-121.9036702169199
 22
-144.5717094907668
 32
0.0
 13
-121.9036702169199
 23
-144.5717094907668
 33
0.0
210
0.0
220
0.0
230
-1.0
  0
SOLID
  5
205
330
1EA
100
AcDbEntity
  8
EBENE_1
 62
   250
100
AcDbTrace
 10
121.9036702169199
 20
-160.3999977871208
 30
0.0
 11
121.9036702169199
 21
-144.5717094907668
 31
0.0
 12
122.2399115362803
 22
-160.5186640881576
 32
0.0
 13
122.2399115362803
 23
-160.5186640881576
 33
0.0
  0
SOLID
  5
206
330
1EA
100
AcDbEntity
  8
EBENE_1
 62
   250
100
AcDbTrace
 10
-122.2399115362803
 20
-160.5186640881576
 30
0.0
 11
-121.9036702169199
 21
-144.5717094907668
 31
0.0
 12
-122.2399115362803
 22
-144.9715343536768
 32
0.0
 13
-122.2399115362803
 23
-144.9715343536768
 33
0.0
210
0.0
220
0.0
230
-1.0
  0
SOLID
  5
207
330
1EA
100
AcDbEntity
  8
EBENE_1
 62
   250
100
AcDbTrace
 10
122.2399115362803
 20
-160.5186640881576
 30
0.0
 11
122.2399115362803
 21
-144.9715343536768
 31
0.0
 12
122.3973523999562
 22
-160.5742281246062
 32
0.0
 13
122.3973523999562
 23
-160.5742281246062
 33
0.0
  0
SOLID
  5
208
330
1EA
100
AcDbEntity
  8
EBENE_1
 62
   250
100
AcDbTrace
 10
-122.3973523999562
 20
-160.5742281246062
 30
0.0
 11
-122.2399115362803
 21
-144.9715343536768
 31
0.0
 12
-122.3973523999562
 22
-145.47019039332
 32
0.0
 13
-122.3973523999562
 23
-145.47019039332
 33
0.0
210
0.0
220
0.0
230
-1.0
  0
SOLID
  5
209
330
1EA
100
AcDbEntity
  8
EBENE_1
 62
   250
100
AcDbTrace
 10
122.3973523999562
 20
-160.5742281246062
 30
0.0
 11
122.3973523999562
 21
-156.9888671482528
 31
0.0
 12
122.4246978453704
 22
-160.5838788803898
 32
0.0
 13
122.4246978453704
 23
-160.5838788803898
 33
0.0
  0
SOLID
  5
20A
330
1EA
100
AcDbEntity
  8
EBENE_1
 62
   250
100
AcDbTrace
 10
-122.4246978453704
 20
-160.5838788803898
 30
0.0
 11
-122.3973523999562
 21
-156.9888671482528
 31
0.0
 12
-122.4246978453704
 22
-157.6900732705818
 32
0.0
 13
-122.4246978453704
 23
-157.6900732705818
 33
0.0
210
0.0
220
0.0
230
-1.0
  0
SOLID
  5
20B
330
1EA
100
AcDbEntity
  8
EBENE_1
 62
   250
100
AcDbTrace
 10
122.4246978453704
 20
-160.5838788803898
 30
0.0
 11
122.4246978453704
 21
-157.6900732705818
 31
0.0
 12
122.4908006149936
 22
-160.6072078727171
 32
0.0
 13
122.4908006149936
 23
-160.6072078727171
 33
0.0
  0
SOLID
  5
20C
330
1EA
100
AcDbEntity
  8
EBENE_1
 62
   250
100
AcDbTrace
 10
-122.4908006149936
 20
-160.6072078727171
 30
0.0
 11
-122.4246978453704
 21
-157.6900732705818
 31
0.0
 12
-122.4908006149936
 22
-158.1066030710479
 32
0.0
 13
-122.4908006149936
 23
-158.1066030710479
 33
0.0
210
0.0
220
0.0
230
-1.0
  0
SOLID
  5
20D
330
1EA
100
AcDbEntity
  8
EBENE_1
 62
   250
100
AcDbTrace
 10
122.4908006149936
 20
-160.6072078727171
 30
0.0
 11
122.4908006149936
 21
-158.1066030710479
 31
0.0
 12
122.5227807904278
 22
-160.6211869127278
 32
0.0
 13
122.5227807904278
 23
-160.6211869127278
 33
0.0
  0
SOLID
  5
20E
330
1EA
100
AcDbEntity
  8
EBENE_1
 62
   250
100
AcDbTrace
 10
-122.5227807904278
 20
-160.6211869127278
 30
0.0
 11
-122.4908006149936
 21
-158.1066030710479
 31
0.0
 12
-122.5227807904278
 22
-158.308118017674
 32
0.0
 13
-122.5227807904278
 23
-158.308118017674
 33
0.0
210
0.0
220
0.0
230
-1.0
  0
SOLID
  5
20F
330
1EA
100
AcDbEntity
  8
EBENE_1
 62
   250
100
AcDbTrace
 10
122.5227807904278
 20
-160.6211869127278
 30
0.0
 11
122.5227807904278
 21
-158.308118017674
 31
0.0
 12
122.7339382288651
 22
-160.7134871656307
 32
0.0
 13
122.7339382288651
 23
-160.7134871656307
 33
0.0
  0
SOLID
  5
210
330
1EA
100
AcDbEntity
  8
EBENE_1
 62
   250
100
AcDbTrace
 10
-122.7339382288651
 20
-160.7134871656307
 30
0.0
 11
-122.5227807904278
 21
-158.308118017674
 31
0.0
 12
-122.7339382288651
 22
-158.8747124168785
 32
0.0
 13
-122.7339382288651
 23
-158.8747124168785
 33
0.0
210
0.0
220
0.0
230
-1.0
  0
SOLID
  5
211
330
1EA
100
AcDbEntity
  8
EBENE_1
 62
   250
100
AcDbTrace
 10
122.7339382288651
 20
-160.7134871656307
 30
0.0
 11
122.7339382288651
 21
-158.8747124168785
 31
0.0
 12
122.9497660594437
 22
-160.807828920737
 32
0.0
 13
122.9497660594437
 23
-160.807828920737
 33
0.0
  0
SOLID
  5
212
330
1EA
100
AcDbEntity
  8
EBENE_1
 62
   250
100
AcDbTrace
 10
-122.9497660594437
 20
-160.807828920737
 30
0.0
 11
-122.7339382288651
 21
-158.8747124168785
 31
0.0
 12
-122.9497660594437
 22
-159.148436019105
 32
0.0
 13
-122.9497660594437
 23
-159.148436019105
 33
0.0
210
0.0
220
0.0
230
-1.0
  0
SOLID
  5
213
330
1EA
100
AcDbEntity
  8
EBENE_1
 62
   250
100
AcDbTrace
 10
122.9497660594437
 20
-160.807828920737
 30
0.0
 11
122.9497660594437
 21
-159.148436019105
 31
0.0
 12
123.1615714718951
 22
-160.9004124133204
 32
0.0
 13
123.1615714718951
 23
-160.9004124133204
 33
0.0
  0
SOLID
  5
214
330
1EA
100
AcDbEntity
  8
EBENE_1
 62
   250
100
AcDbTrace
 10
-123.1615714718951
 20
-160.9004124133204
 30
0.0
 11
-122.9497660594437
 21
-159.148436019105
 31
0.0
 12
-123.1615714718951
 22
-159.3035014357121
 32
0.0
 13
-123.1615714718951
 23
-159.3035014357121
 33
0.0
210
0.0
220
0.0
230
-1.0
  0
SOLID
  5
215
330
1EA
100
AcDbEntity
  8
EBENE_1
 62
   250
100
AcDbTrace
 10
123.1615714718951
 20
-160.9004124133204
 30
0.0
 11
123.1615714718951
 21
-159.3035014357121
 31
0.0
 12
123.20850551492
 22
-160.9360183978912
 32
0.0
 13
123.20850551492
 23
-160.9360183978912
 33
0.0
  0
SOLID
  5
216
330
1EA
100
AcDbEntity
  8
EBENE_1
 62
   250
100
AcDbTrace
 10
-123.20850551492
 20
-160.9360183978912
 30
0.0
 11
-123.1615714718951
 21
-159.3035014357121
 31
0.0
 12
-123.20850551492
 22
-159.3378624411768
 32
0.0
 13
-123.20850551492
 23
-159.3378624411768
 33
0.0
210
0.0
220
0.0
230
-1.0
  0
SOLID
  5
217
330
1EA
100
AcDbEntity
  8
EBENE_1
 62
   250
100
AcDbTrace
 10
123.20850551492
 20
-160.9360183978912
 30
0.0
 11
123.20850551492
 21
-159.3378624411768
 31
0.0
 12
123.4503471807633
 22
-161.1194888612823
 32
0.0
 13
123.4503471807633
 23
-161.1194888612823
 33
0.0
  0
SOLID
  5
218
330
1EA
100
AcDbEntity
  8
EBENE_1
 62
   250
100
AcDbTrace
 10
-123.4503471807633
 20
-161.1194888612823
 30
0.0
 11
-123.20850551492
 21
-159.3378624411768
 31
0.0
 12
-123.4503471807633
 22
-159.434174742966
 32
0.0
 13
-123.4503471807633
 23
-159.434174742966
 33
0.0
210
0.0
220
0.0
230
-1.0
  0
SOLID
  5
219
330
1EA
100
AcDbEntity
  8
EBENE_1
 62
   250
100
AcDbTrace
 10
123.4503471807633
 20
-161.1194888612823
 30
0.0
 11
123.4503471807633
 21
-159.434174742966
 31
0.0
 12
123.6778943918236
 22
-161.4123697513136
 32
0.0
 13
123.6778943918236
 23
-161.4123697513136
 33
0.0
  0
SOLID
  5
21A
330
1EA
100
AcDbEntity
  8
EBENE_1
 62
   250
100
AcDbTrace
 10
-123.6778943918236
 20
-161.4123697513136
 30
0.0
 11
-123.4503471807633
 21
-159.434174742966
 31
0.0
 12
-123.6778943918236
 22
-159.524794345616
 32
0.0
 13
-123.6778943918236
 23
-159.524794345616
 33
0.0
210
0.0
220
0.0
230
-1.0
  0
SOLID
  5
21B
330
1EA
100
AcDbEntity
  8
EBENE_1
 62
   250
100
AcDbTrace
 10
123.6778943918236
 20
-161.4123697513136
 30
0.0
 11
123.6778943918236
 21
-159.524794345616
 31
0.0
 12
123.801185746502
 22
-161.7363083937195
 32
0.0
 13
123.801185746502
 23
-161.7363083937195
 33
0.0
  0
SOLID
  5
21C
330
1EA
100
AcDbEntity
  8
EBENE_1
 62
   250
100
AcDbTrace
 10
-123.801185746502
 20
-161.7363083937195
 30
0.0
 11
-123.6778943918236
 21
-159.524794345616
 31
0.0
 12
-123.801185746502
 22
-159.57389454561
 32
0.0
 13
-123.801185746502
 23
-159.57389454561
 33
0.0
210
0.0
220
0.0
230
-1.0
  0
SOLID
  5
21D
330
1EA
100
AcDbEntity
  8
EBENE_1
 62
   250
100
AcDbTrace
 10
123.801185746502
 20
-161.7363083937195
 30
0.0
 11
123.801185746502
 21
-159.57389454561
 31
0.0
 12
123.9266302858427
 22
-162.065904364802
 32
0.0
 13
123.9266302858427
 23
-162.065904364802
 33
0.0
  0
SOLID
  5
21E
330
1EA
100
AcDbEntity
  8
EBENE_1
 62
   250
100
AcDbTrace
 10
-123.9266302858427
 20
-162.065904364802
 30
0.0
 11
-123.801185746502
 21
-159.57389454561
 31
0.0
 12
-123.9266302858427
 22
-159.6214886434035
 32
0.0
 13
-123.9266302858427
 23
-159.6214886434035
 33
0.0
210
0.0
220
0.0
230
-1.0
  0
SOLID
  5
21F
330
1EA
100
AcDbEntity
  8
EBENE_1
 62
   250
100
AcDbTrace
 10
123.9266302858427
 20
-162.065904364802
 30
0.0
 11
123.9266302858427
 21
-159.6214886434035
 31
0.0
 12
124.014135711184
 22
-162.5799126112647
 32
0.0
 13
124.014135711184
 23
-162.5799126112647
 33
0.0
  0
SOLID
  5
220
330
1EA
100
AcDbEntity
  8
EBENE_1
 62
   250
100
AcDbTrace
 10
-124.014135711184
 20
-162.5799126112647
 30
0.0
 11
-123.9266302858427
 21
-159.6214886434035
 31
0.0
 12
-124.014135711184
 22
-159.6546885084039
 32
0.0
 13
-124.014135711184
 23
-159.6546885084039
 33
0.0
210
0.0
220
0.0
230
-1.0
  0
SOLID
  5
221
330
1EA
100
AcDbEntity
  8
EBENE_1
 62
   250
100
AcDbTrace
 10
-124.014135711184
 20
-162.5799126112647
 30
0.0
 11
-124.014135711184
 21
-159.6546885084039
 31
0.0
 12
-124.4049118154835
 22
-162.5799126112647
 32
0.0
 13
-124.4049118154835
 23
-162.5799126112647
 33
0.0
210
0.0
220
0.0
230
-1.0
  0
SOLID
  5
222
330
1EA
100
AcDbEntity
  8
EBENE_1
 62
   250
100
AcDbTrace
 10
-124.4049118154835
 20
-162.5799126112647
 30
0.0
 11
-124.014135711184
 21
-159.6546885084039
 31
0.0
 12
-124.4049118154835
 22
-159.8029503316856
 32
0.0
 13
-124.4049118154835
 23
-159.8029503316856
 33
0.0
210
0.0
220
0.0
230
-1.0
  0
SOLID
  5
223
330
1EA
100
AcDbEntity
  8
EBENE_1
 62
   250
100
AcDbTrace
 10
-124.4049118154835
 20
-162.5799126112647
 30
0.0
 11
-124.4049118154835
 21
-159.8029503316856
 31
0.0
 12
-124.6774585677093
 22
-162.5799126112647
 32
0.0
 13
-124.6774585677093
 23
-162.5799126112647
 33
0.0
210
0.0
220
0.0
230
-1.0
  0
SOLID
  5
224
330
1EA
100
AcDbEntity
  8
EBENE_1
 62
   250
100
AcDbTrace
 10
-124.6774585677093
 20
-162.5799126112647
 30
0.0
 11
-124.4049118154835
 21
-159.8029503316856
 31
0.0
 12
-124.6774585677093
 22
-159.9836563558103
 32
0.0
 13
-124.6774585677093
 23
-159.9836563558103
 33
0.0
210
0.0
220
0.0
230
-1.0
  0
SOLID
  5
225
330
1EA
100
AcDbEntity
  8
EBENE_1
 62
   250
100
AcDbTrace
 10
-124.6774585677093
 20
-162.5799126112647
 30
0.0
 11
-124.6774585677093
 21
-159.9836563558103
 31
0.0
 12
-124.9126166137371
 22
-162.5799126112647
 32
0.0
 13
-124.9126166137371
 23
-162.5799126112647
 33
0.0
210
0.0
220
0.0
230
-1.0
  0
SOLID
  5
226
330
1EA
100
AcDbEntity
  8
EBENE_1
 62
   250
100
AcDbTrace
 10
-124.9126166137371
 20
-162.5799126112647
 30
0.0
 11
-124.6774585677093
 21
-159.9836563558103
 31
0.0
 12
-124.9126166137371
 22
-160.2451714009109
 32
0.0
 13
-124.9126166137371
 23
-160.2451714009109
 33
0.0
210
0.0
220
0.0
230
-1.0
  0
SOLID
  5
227
330
1EA
100
AcDbEntity
  8
EBENE_1
 62
   250
100
AcDbTrace
 10
-124.9126166137371
 20
-162.5799126112647
 30
0.0
 11
-124.9126166137371
 21
-160.2451714009109
 31
0.0
 12
-125.2147514877935
 22
-162.5799126112647
 32
0.0
 13
-125.2147514877935
 23
-162.5799126112647
 33
0.0
210
0.0
220
0.0
230
-1.0
  0
SOLID
  5
228
330
1EA
100
AcDbEntity
  8
EBENE_1
 62
   250
100
AcDbTrace
 10
-125.2147514877935
 20
-162.5799126112647
 30
0.0
 11
-124.9126166137371
 21
-160.2451714009109
 31
0.0
 12
-125.2147514877935
 22
-160.9349548785217
 32
0.0
 13
-125.2147514877935
 23
-160.9349548785217
 33
0.0
210
0.0
220
0.0
230
-1.0
  0
SOLID
  5
229
330
1EA
100
AcDbEntity
  8
EBENE_1
 62
   250
100
AcDbTrace
 10
-125.2147514877935
 20
-162.5799126112647
 30
0.0
 11
-125.2147514877935
 21
-160.9349548785217
 31
0.0
 12
-125.3675414725644
 22
-162.5799126112647
 32
0.0
 13
-125.3675414725644
 23
-162.5799126112647
 33
0.0
210
0.0
220
0.0
230
-1.0
  0
SOLID
  5
22A
330
1EA
100
AcDbEntity
  8
EBENE_1
 62
   250
100
AcDbTrace
 10
-125.3675414725644
 20
-162.5799126112647
 30
0.0
 11
-125.2147514877935
 21
-160.9349548785217
 31
0.0
 12
-125.3675414725644
 22
-161.701413262526
 32
0.0
 13
-125.3675414725644
 23
-161.701413262526
 33
0.0
210
0.0
220
0.0
230
-1.0
  0
SOLID
  5
22B
330
1EA
100
AcDbEntity
  8
EBENE_1
 62
   250
100
AcDbTrace
 10
-125.3675414725644
 20
-162.5799126112647
 30
0.0
 11
-125.3675414725644
 21
-161.701413262526
 31
0.0
 12
-125.4286919174276
 22
-162.5799126112647
 32
0.0
 13
-125.4286919174276
 23
-162.5799126112647
 33
0.0
210
0.0
220
0.0
230
-1.0
  0
ENDBLK
  5
22D
330
1EA
100
AcDbEntity
  8
0
100
AcDbBlockEnd
  0
BLOCK
  5
230
330
22E
100
AcDbEntity
  8
0
100
AcDbBlockBegin
  2
*U4
 70
     1
 71
     0
 10
0.0
 20
0.0
 30
0.0
  3
*U4
  1

  0
SOLID
  5
22F
330
22E
100
AcDbEntity
  8
EBENE_1
 62
   250
100
AcDbTrace
 10
124.9267415052267
 20
-138.4074001390093
 30
0.0
 11
121.6959309591594
 21
-136.7299831472411
 31
0.0
 12
124.9267415052267
 22
-135.3712374878586
 32
0.0
 13
124.9267415052267
 23
-135.3712374878586
 33
0.0
  0
ENDBLK
  5
231
330
22E
100
AcDbEntity
  8
0
100
AcDbBlockEnd
  0
BLOCK
  5
234
330
232
100
AcDbEntity
  8
0
100
AcDbBlockBegin
  2
*U5
 70
     1
 71
     0
 10
0.0
 20
0.0
 30
0.0
  3
*U5
  1

  0
SOLID
  5
233
330
232
100
AcDbEntity
  8
EBENE_1
 62
   250
100
AcDbTrace
 10
122.9651041359254
 20
-131.0965630097606
 30
0.0
 11
119.7346380994066
 21
-129.4193182727667
 31
0.0
 12
122.9651041359254
 22
-128.0602281038356
 32
0.0
 13
122.9651041359254
 23
-128.0602281038356
 33
0.0
  0
ENDBLK
  5
235
330
232
100
AcDbEntity
  8
0
100
AcDbBlockEnd
  0
BLOCK
  5
238
330
236
100
AcDbEntity
  8
0
100
AcDbBlockBegin
  2
*U6
 70
     1
 71
     0
 10
0.0
 20
0.0
 30
0.0
  3
*U6
  1

  0
SOLID
  5
237
330
236
100
AcDbEntity
  8
EBENE_1
 62
   250
100
AcDbTrace
 10
130.8812445419325
 20
-138.5813774610144
 30
0.0
 11
130.8812445419325
 21
-135.5445257907666
 31
0.0
 12
134.1117105784512
 22
-136.9043049787948
 32
0.0
 13
134.1117105784512
 23
-136.9043049787948
 33
0.0
  0
ENDBLK
  5
239
330
236
100
AcDbEntity
  8
0
100
AcDbBlockEnd
  0
BLOCK
  5
23C
330
23A
100
AcDbEntity
  8
0
100
AcDbBlockBegin
  2
*U7
 70
     1
 71
     0
 10
0.0
 20
0.0
 30
0.0
  3
*U7
  1

  0
SOLID
  5
23B
330
23A
100
AcDbEntity
  8
EBENE_1
 62
   250
100
AcDbTrace
 10
132.5751979920298
 20
-131.136870626938
 30
0.0
 11
132.5751979920298
 21
-128.1001912114645
 31
0.0
 12
135.8056640285486
 22
-129.4596258899441
 32
0.0
 13
135.8056640285486
 23
-129.4596258899441
 33
0.0
  0
ENDBLK
  5
23D
330
23A
100
AcDbEntity
  8
0
100
AcDbBlockEnd
  0
BLOCK
  5
241
330
23E
100
AcDbEntity
  8
0
100
AcDbBlockBegin
  2
*U8
 70
     1
 71
     0
 10
0.0
 20
0.0
 30
0.0
  3
*U8
  1

  0
SOLID
  5
23F
330
23E
100
AcDbEntity
  8
EBENE_1
 62
   250
100
AcDbTrace
 10
-142.3127603810885
 20
-159.8321044522295
 30
0.0
 11
-141.0222276123139
 21
-156.7642469226145
 31
0.0
 12
-142.3127603810885
 22
-156.7642469226145
 32
0.0
 13
-142.3127603810885
 23
-156.7642469226145
 33
0.0
210
0.0
220
0.0
230
-1.0
  0
SOLID
  5
240
330
23E
100
AcDbEntity
  8
EBENE_1
 62
   250
100
AcDbTrace
 10
-142.3127603810885
 20
-159.8321044522295
 30
0.0
 11
-142.3127603810885
 21
-156.7642469226145
 31
0.0
 12
-143.905083514371
 22
-156.7642469226145
 32
0.0
 13
-143.905083514371
 23
-156.7642469226145
 33
0.0
210
0.0
220
0.0
230
-1.0
  0
ENDBLK
  5
242
330
23E
100
AcDbEntity
  8
0
100
AcDbBlockEnd
  0
BLOCK
  5
246
330
243
100
AcDbEntity
  8
0
100
AcDbBlockBegin
  2
*U9
 70
     1
 71
     0
 10
0.0
 20
0.0
 30
0.0
  3
*U9
  1

  0
SOLID
  5
244
330
243
100
AcDbEntity
  8
EBENE_1
 62
   250
100
AcDbTrace
 10
-148.1225694074138
 20
-162.4324625244961
 30
0.0
 11
-146.8323811481877
 21
-159.3646049948811
 31
0.0
 12
-148.1225694074138
 22
-159.3646049948811
 32
0.0
 13
-148.1225694074138
 23
-159.3646049948811
 33
0.0
210
0.0
220
0.0
230
-1.0
  0
SOLID
  5
245
330
243
100
AcDbEntity
  8
EBENE_1
 62
   250
100
AcDbTrace
 10
-148.1225694074138
 20
-162.4324625244961
 30
0.0
 11
-148.1225694074138
 21
-159.3646049948811
 31
0.0
 12
-149.7148925406963
 22
-159.3646049948811
 32
0.0
 13
-149.7148925406963
 23
-159.3646049948811
 33
0.0
210
0.0
220
0.0
230
-1.0
  0
ENDBLK
  5
247
330
243
100
AcDbEntity
  8
0
100
AcDbBlockEnd
  0
BLOCK
  5
24B
330
248
100
AcDbEntity
  8
0
100
AcDbBlockBegin
  2
*U10
 70
     1
 71
     0
 10
0.0
 20
0.0
 30
0.0
  3
*U10
  1

  0
SOLID
  5
249
330
248
100
AcDbEntity
  8
EBENE_1
 62
   250
100
AcDbTrace
 10
142.1808132240034
 20
-146.8714829819453
 30
0.0
 11
140.8899359456803
 21
-146.8714829819453
 31
0.0
 12
142.1808132240034
 22
-143.8041422166531
 32
0.0
 13
142.1808132240034
 23
-143.8041422166531
 33
0.0
  0
SOLID
  5
24A
330
248
100
AcDbEntity
  8
EBENE_1
 62
   250
100
AcDbTrace
 10
-142.1808132240034
 20
-146.8714829819453
 30
0.0
 11
-142.1808132240034
 21
-143.8041422166531
 31
0.0
 12
-143.7734808668344
 22
-146.8714829819453
 32
0.0
 13
-143.7734808668344
 23
-146.8714829819453
 33
0.0
210
0.0
220
0.0
230
-1.0
  0
ENDBLK
  5
24C
330
248
100
AcDbEntity
  8
0
100
AcDbBlockEnd
  0
BLOCK
  5
250
330
24D
100
AcDbEntity
  8
0
100
AcDbBlockBegin
  2
*U11
 70
     1
 71
     0
 10
0.0
 20
0.0
 30
0.0
  3
*U11
  1

  0
SOLID
  5
24E
330
24D
100
AcDbEntity
  8
EBENE_1
 62
   250
100
AcDbTrace
 10
148.1835475975027
 20
-146.856841326133
 30
0.0
 11
146.8926703191796
 21
-146.856841326133
 31
0.0
 12
148.1835475975027
 22
-143.7888115417438
 32
0.0
 13
148.1835475975027
 23
-143.7888115417438
 33
0.0
  0
SOLID
  5
24F
330
24D
100
AcDbEntity
  8
EBENE_1
 62
   250
100
AcDbTrace
 10
-148.1835475975027
 20
-146.856841326133
 30
0.0
 11
-148.1835475975027
 21
-143.7888115417438
 31
0.0
 12
-149.7758707307852
 22
-146.856841326133
 32
0.0
 13
-149.7758707307852
 23
-146.856841326133
 33
0.0
210
0.0
220
0.0
230
-1.0
  0
ENDBLK
  5
251
330
24D
100
AcDbEntity
  8
0
100
AcDbBlockEnd
  0
BLOCK
  5
254
330
252
100
AcDbEntity
  8
0
100
AcDbBlockBegin
  2
*U12
 70
     1
 71
     0
 10
0.0
 20
0.0
 30
0.0
  3
*U12
  1

  0
SOLID
  5
253
330
252
100
AcDbEntity
  8
EBENE_1
 62
   250
100
AcDbTrace
 10
59.73054875893889
 20
-143.4336221972145
 30
0.0
 11
56.50008272242012
 21
-141.7565497149949
 31
0.0
 12
59.73054875893889
 22
-140.3972872912896
 32
0.0
 13
59.73054875893889
 23
-140.3972872912896
 33
0.0
  0
ENDBLK
  5
255
330
252
100
AcDbEntity
  8
0
100
AcDbBlockEnd
  0
BLOCK
  5
258
330
256
100
AcDbEntity
  8
0
100
AcDbBlockBegin
  2
*U13
 70
     1
 71
     0
 10
0.0
 20
0.0
 30
0.0
  3
*U13
  1

  0
SOLID
  5
257
330
256
100
AcDbEntity
  8
EBENE_1
 62
   250
100
AcDbTrace
 10
57.59079995305022
 20
-135.2311943563832
 30
0.0
 11
54.36033391653145
 21
-133.5541218741636
 31
0.0
 12
57.59079995305022
 22
-132.1950317052325
 32
0.0
 13
57.59079995305022
 23
-132.1950317052325
 33
0.0
  0
ENDBLK
  5
259
330
256
100
AcDbEntity
  8
0
100
AcDbBlockEnd
  0
BLOCK
  5
25C
330
25A
100
AcDbEntity
  8
0
100
AcDbBlockBegin
  2
*U14
 70
     1
 71
     0
 10
0.0
 20
0.0
 30
0.0
  3
*U14
  1

  0
SOLID
  5
25B
330
25A
100
AcDbEntity
  8
EBENE_1
 62
   250
100
AcDbTrace
 10
87.54711098071739
 20
-135.2311943563832
 30
0.0
 11
87.54711098071739
 21
-132.1950317052325
 31
0.0
 12
90.77774927201042
 22
-133.5541218741636
 32
0.0
 13
90.77774927201042
 23
-133.5541218741636
 33
0.0
  0
ENDBLK
  5
25D
330
25A
100
AcDbEntity
  8
0
100
AcDbBlockEnd
  0
BLOCK
  5
260
330
25E
100
AcDbEntity
  8
0
100
AcDbBlockBegin
  2
*U15
 70
     1
 71
     0
 10
0.0
 20
0.0
 30
0.0
  3
*U15
  1

  0
SOLID
  5
25F
330
25E
100
AcDbEntity
  8
EBENE_1
 62
   250
100
AcDbTrace
 10
85.40736217482872
 20
-143.0768825597169
 30
0.0
 11
85.40736217482872
 21
-140.0405476537919
 31
0.0
 12
88.63800046612175
 22
-141.3999823322715
 32
0.0
 13
88.63800046612175
 23
-141.3999823322715
 33
0.0
  0
ENDBLK
  5
261
330
25E
100
AcDbEntity
  8
0
100
AcDbBlockEnd
  0
BLOCK
  5
265
330
262
100
AcDbEntity
  8
0
100
AcDbBlockBegin
  2
*U16
 70
     1
 71
     0
 10
0.0
 20
0.0
 30
0.0
  3
*U16
  1

  0
SOLID
  5
263
330
262
100
AcDbEntity
  8
EBENE_1
 62
   250
100
AcDbTrace
 10
-106.4379475645363
 20
-167.5556640206111
 30
0.0
 11
-105.0783406312825
 21
-164.3251979840923
 31
0.0
 12
-106.4379475645363
 22
-164.3251979840923
 32
0.0
 13
-106.4379475645363
 23
-164.3251979840923
 33
0.0
210
0.0
220
0.0
230
-1.0
  0
SOLID
  5
264
330
262
100
AcDbEntity
  8
EBENE_1
 62
   250
100
AcDbTrace
 10
-106.4379475645363
 20
-167.5556640206111
 30
0.0
 11
-106.4379475645363
 21
-164.3251979840923
 31
0.0
 12
-108.115020046756
 22
-164.3251979840923
 32
0.0
 13
-108.115020046756
 23
-164.3251979840923
 33
0.0
210
0.0
220
0.0
230
-1.0
  0
ENDBLK
  5
266
330
262
100
AcDbEntity
  8
0
100
AcDbBlockEnd
  0
BLOCK
  5
26A
330
267
100
AcDbEntity
  8
0
100
AcDbBlockBegin
  2
*U17
 70
     1
 71
     0
 10
0.0
 20
0.0
 30
0.0
  3
*U17
  1

  0
SOLID
  5
268
330
267
100
AcDbEntity
  8
EBENE_1
 62
   250
100
AcDbTrace
 10
106.4782551817138
 20
-154.7147596184394
 30
0.0
 11
105.1186482484599
 21
-154.7147596184394
 31
0.0
 12
106.4782551817138
 22
-151.4839490723721
 32
0.0
 13
106.4782551817138
 23
-151.4839490723721
 33
0.0
  0
SOLID
  5
269
330
267
100
AcDbEntity
  8
EBENE_1
 62
   250
100
AcDbTrace
 10
-106.4782551817138
 20
-154.7147596184394
 30
0.0
 11
-106.4782551817138
 21
-151.4839490723721
 31
0.0
 12
-108.1546386448363
 22
-154.7147596184394
 32
0.0
 13
-108.1546386448363
 23
-154.7147596184394
 33
0.0
210
0.0
220
0.0
230
-1.0
  0
ENDBLK
  5
26B
330
267
100
AcDbEntity
  8
0
100
AcDbBlockEnd
  0
BLOCK
  5
26F
330
26C
100
AcDbEntity
  8
0
100
AcDbBlockBegin
  2
*U18
 70
     1
 71
     0
 10
0.0
 20
0.0
 30
0.0
  3
*U18
  1

  0
SOLID
  5
26D
330
26C
100
AcDbEntity
  8
EBENE_1
 62
   250
100
AcDbTrace
 10
-98.94865448915174
 20
-165.5943711608584
 30
0.0
 11
-97.58921981067215
 21
-162.3639051243396
 31
0.0
 12
-98.94865448915174
 22
-162.3639051243396
 32
0.0
 13
-98.94865448915174
 23
-162.3639051243396
 33
0.0
210
0.0
220
0.0
230
-1.0
  0
SOLID
  5
26E
330
26C
100
AcDbEntity
  8
EBENE_1
 62
   250
100
AcDbTrace
 10
-98.94865448915174
 20
-165.5943711608584
 30
0.0
 11
-98.94865448915174
 21
-162.3639051243396
 31
0.0
 12
-100.6258992261456
 22
-162.3639051243396
 32
0.0
 13
-100.6258992261456
 23
-162.3639051243396
 33
0.0
210
0.0
220
0.0
230
-1.0
  0
ENDBLK
  5
270
330
26C
100
AcDbEntity
  8
0
100
AcDbBlockEnd
  0
BLOCK
  5
274
330
271
100
AcDbEntity
  8
0
100
AcDbBlockBegin
  2
*U19
 70
     1
 71
     0
 10
0.0
 20
0.0
 30
0.0
  3
*U19
  1

  0
SOLID
  5
272
330
271
100
AcDbEntity
  8
EBENE_1
 62
   250
100
AcDbTrace
 10
99.12297632070538
 20
-156.4083685589882
 30
0.0
 11
97.76319713267726
 21
-156.4083685589882
 31
0.0
 12
99.12297632070538
 22
-153.1782470320179
 32
0.0
 13
99.12297632070538
 23
-153.1782470320179
 33
0.0
  0
SOLID
  5
273
330
271
100
AcDbEntity
  8
EBENE_1
 62
   250
100
AcDbTrace
 10
-99.12297632070538
 20
-156.4083685589882
 30
0.0
 11
-99.12297632070538
 21
-153.1782470320179
 31
0.0
 12
-100.7995320386022
 22
-156.4083685589882
 32
0.0
 13
-100.7995320386022
 23
-156.4083685589882
 33
0.0
210
0.0
220
0.0
230
-1.0
  0
ENDBLK
  5
275
330
271
100
AcDbEntity
  8
0
100
AcDbBlockEnd
  0
BLOCK
  5
278
330
276
100
AcDbEntity
  8
0
100
AcDbBlockBegin
  2
*U20
 70
     1
 71
     0
 10
0.0
 20
0.0
 30
0.0
  3
*U20
  1

  0
SOLID
  5
277
330
276
100
AcDbEntity
  8
EBENE_1
 62
   250
100
AcDbTrace
 10
134.9120062596748
 20
-178.2954046863289
 30
0.0
 11
131.681540223156
 21
-176.6179876945608
 31
0.0
 12
134.9120062596748
 22
-175.2595865447268
 32
0.0
 13
134.9120062596748
 23
-175.2595865447268
 33
0.0
  0
ENDBLK
  5
279
330
276
100
AcDbEntity
  8
0
100
AcDbBlockEnd
  0
BLOCK
  5
27C
330
27A
100
AcDbEntity
  8
0
100
AcDbBlockBegin
  2
*U21
 70
     1
 71
     0
 10
0.0
 20
0.0
 30
0.0
  3
*U21
  1

  0
SOLID
  5
27B
330
27A
100
AcDbEntity
  8
EBENE_1
 62
   250
100
AcDbTrace
 10
120.5580159203813
 20
-178.2657768651558
 30
0.0
 11
120.5580159203813
 21
-175.2292697044566
 31
0.0
 12
123.7884819569001
 22
-176.5883598733876
 32
0.0
 13
123.7884819569001
 23
-176.5883598733876
 33
0.0
  0
ENDBLK
  5
27D
330
27A
100
AcDbEntity
  8
0
100
AcDbBlockEnd
  0
BLOCK
  5
280
330
27E
100
AcDbEntity
  8
0
100
AcDbBlockBegin
  2
*U22
 70
     1
 71
     0
 10
0.0
 20
0.0
 30
0.0
  3
*U22
  1

  0
SOLID
  5
27F
330
27E
100
AcDbEntity
  8
EBENE_1
 62
   250
100
AcDbTrace
 10
133.5491264857099
 20
-169.3701958126922
 30
0.0
 11
130.3186604491912
 21
-167.6931233304726
 31
0.0
 12
133.5491264857099
 22
-166.3340331615415
 32
0.0
 13
133.5491264857099
 23
-166.3340331615415
 33
0.0
  0
ENDBLK
  5
281
330
27E
100
AcDbEntity
  8
0
100
AcDbBlockEnd
  0
BLOCK
  5
284
330
282
100
AcDbEntity
  8
0
100
AcDbBlockBegin
  2
*U23
 70
     1
 71
     0
 10
0.0
 20
0.0
 30
0.0
  3
*U23
  1

  0
SOLID
  5
283
330
282
100
AcDbEntity
  8
EBENE_1
 62
   250
100
AcDbTrace
 10
121.7951497091345
 20
-169.8015217674455
 30
0.0
 11
121.7951497091345
 21
-166.7646700971977
 31
0.0
 12
125.0252712361048
 22
-168.1241047756773
 32
0.0
 13
125.0252712361048
 23
-168.1241047756773
 33
0.0
  0
ENDBLK
  5
285
330
282
100
AcDbEntity
  8
0
100
AcDbBlockEnd
  0
ENDSEC
  0
SECTION
  2
ENTITIES
  0
SPLINE
  5
3C
330
1F
100
AcDbEntity
  8
EBENE_1
 62
   250
100
AcDbSpline
210
0.0
220
0.0
230
1.0
 70
    11
 71
     3
 72
    23
 73
    19
 74
     0
 42
0.0000000001
 43
0.0000000001
 40
0.0
 40
0.0
 40
0.0
 40
0.0
 40
1.0
 40
1.0
 40
1.0
 40
2.0
 40
2.0
 40
2.0
 40
3.0
 40
3.0
 40
3.0
 40
4.0
 40
4.0
 40
4.0
 40
5.0
 40
5.0
 40
5.0
 40
6.0
 40
6.0
 40
6.0
 40
6.0
 10
64.4176011666213
 20
-153.0755831865575
 30
0.0
 10
64.4176011666213
 20
-153.0755831865575
 30
0.0
 10
80.45710447207323
 20
-153.0755831865575
 30
0.0
 10
80.45710447207323
 20
-153.0755831865575
 30
0.0
 10
84.9569159401323
 20
-153.0755831865575
 30
0.0
 10
88.60458303991483
 20
-155.9102077518211
 30
0.0
 10
88.60458303991483
 20
-159.4076686884467
 30
0.0
 10
88.60458303991483
 20
-162.9044406059753
 30
0.0
 10
84.9569159401323
 20
-165.7394096807874
 30
0.0
 10
80.45710447207323
 20
-165.7394096807874
 30
0.0
 10
80.45710447207323
 20
-165.7394096807874
 30
0.0
 10
64.4176011666213
 20
-165.7394096807874
 30
0.0
 10
64.4176011666213
 20
-165.7394096807874
 30
0.0
 10
59.91778969856222
 20
-165.7394096807874
 30
0.0
 10
56.27012259877969
 20
-162.9044406059753
 30
0.0
 10
56.27012259877969
 20
-159.4076686884467
 30
0.0
 10
56.27012259877969
 20
-155.9102077518211
 30
0.0
 10
59.91778969856222
 20
-153.0755831865575
 30
0.0
 10
64.4176011666213
 20
-153.0755831865575
 30
0.0
  0
SPLINE
  5
3D
330
1F
100
AcDbEntity
  8
EBENE_1
 62
   250
100
AcDbSpline
210
0.0
220
0.0
230
1.0
 70
    11
 71
     3
 72
    23
 73
    19
 74
     0
 42
0.0000000001
 43
0.0000000001
 40
0.0
 40
0.0
 40
0.0
 40
0.0
 40
1.0
 40
1.0
 40
1.0
 40
2.0
 40
2.0
 40
2.0
 40
3.0
 40
3.0
 40
3.0
 40
4.0
 40
4.0
 40
4.0
 40
5.0
 40
5.0
 40
5.0
 40
6.0
 40
6.0
 40
6.0
 40
6.0
 10
63.07470294647091
 20
-151.2793104005482
 30
0.0
 10
63.07470294647091
 20
-151.2793104005482
 30
0.0
 10
81.80000269222361
 20
-151.2793104005482
 30
0.0
 10
81.80000269222361
 20
-151.2793104005482
 30
0.0
 10
86.74905461155927
 20
-151.2793104005482
 30
0.0
 10
90.76017928503565
 20
-154.9180202520691
 30
0.0
 10
90.76017928503565
 20
-159.4076686884467
 30
0.0
 10
90.76017928503565
 20
-163.8969726152758
 30
0.0
 10
86.74905461155927
 20
-167.5363714858937
 30
0.0
 10
81.80000269222361
 20
-167.5363714858937
 30
0.0
 10
81.80000269222361
 20
-167.5363714858937
 30
0.0
 10
63.07470294647091
 20
-167.5363714858937
 30
0.0
 10
63.07470294647091
 20
-167.5363714858937
 30
0.0
 10
58.12634004623231
 20
-167.5363714858937
 30
0.0
 10
54.11452635365887
 20
-163.8969726152758
 30
0.0
 10
54.11452635365887
 20
-159.4076686884467
 30
0.0
 10
54.11452635365887
 20
-154.9180202520691
 30
0.0
 10
58.12634004623231
 20
-151.2793104005482
 30
0.0
 10
63.07470294647091
 20
-151.2793104005482
 30
0.0
  0
SPLINE
  5
3E
330
1F
100
AcDbEntity
  8
EBENE_1
 62
   250
100
AcDbSpline
210
0.0
220
0.0
230
1.0
 70
    11
 71
     3
 72
    17
 73
    13
 74
     0
 42
0.0000000001
 43
0.0000000001
 40
0.0
 40
0.0
 40
0.0
 40
0.0
 40
1.0
 40
1.0
 40
1.0
 40
2.0
 40
2.0
 40
2.0
 40
3.0
 40
3.0
 40
3.0
 40
4.0
 40
4.0
 40
4.0
 40
4.0
 10
66.9940158252654
 20
-159.3518581415857
 30
0.0
 10
66.9940158252654
 20
-156.3749511327813
 30
0.0
 10
69.40816648655421
 20
-153.9606282167182
 30
0.0
 10
72.38576251445565
 20
-153.9606282167182
 30
0.0
 10
75.36266952326002
 20
-153.9606282167182
 30
0.0
 10
77.77699243932312
 20
-156.3749511327813
 30
0.0
 10
77.77699243932312
 20
-159.3518581415857
 30
0.0
 10
77.77699243932312
 20
-162.3297986790356
 30
0.0
 10
75.36266952326002
 20
-164.7430880664531
 30
0.0
 10
72.38576251445565
 20
-164.7430880664531
 30
0.0
 10
69.40816648655421
 20
-164.7430880664531
 30
0.0
 10
66.9940158252654
 20
-162.3297986790356
 30
0.0
 10
66.9940158252654
 20
-159.3518581415857
 30
0.0
  0
SPLINE
  5
3F
330
1F
100
AcDbEntity
  8
EBENE_1
 62
   250
100
AcDbSpline
210
0.0
220
0.0
230
1.0
 70
    11
 71
     3
 72
    17
 73
    13
 74
     0
 42
0.0000000001
 43
0.0000000001
 40
0.0
 40
0.0
 40
0.0
 40
0.0
 40
1.0
 40
1.0
 40
1.0
 40
2.0
 40
2.0
 40
2.0
 40
3.0
 40
3.0
 40
3.0
 40
4.0
 40
4.0
 40
4.0
 40
4.0
 10
68.15518525856885
 20
-159.3518581415857
 30
0.0
 10
68.15518525856885
 20
-157.0160834025863
 30
0.0
 10
70.04981552068199
 20
-155.1219699047959
 30
0.0
 10
72.38576251445565
 20
-155.1219699047959
 30
0.0
 10
74.72205401777782
 20
-155.1219699047959
 30
0.0
 10
76.61599526079392
 20
-157.0160834025863
 30
0.0
 10
76.61599526079392
 20
-159.3518581415857
 30
0.0
 10
76.61599526079392
 20
-161.6883218996821
 30
0.0
 10
74.72205401777782
 20
-163.5820908879239
 30
0.0
 10
72.38576251445565
 20
-163.5820908879239
 30
0.0
 10
70.04981552068199
 20
-163.5820908879239
 30
0.0
 10
68.15518525856885
 20
-161.6883218996821
 30
0.0
 10
68.15518525856885
 20
-159.3518581415857
 30
0.0
  0
POLYLINE
  5
40
330
1F
100
AcDbEntity
  8
EBENE_1
 62
   250
100
AcDb2dPolyline
 66
     1
 10
0.0
 20
0.0
 30
0.0
  0
VERTEX
  5
41
330
40
100
AcDbEntity
  8
EBENE_1
 62
   250
100
AcDbVertex
100
AcDb2dVertex
 10
64.17437742536266
 20
-159.4355739618772
 30
0.0
  0
VERTEX
  5
42
330
40
100
AcDbEntity
  8
EBENE_1
 62
   250
100
AcDbVertex
100
AcDb2dVertex
 10
80.26504039877055
 20
-159.4355739618772
 30
0.0
  0
SEQEND
  5
43
330
40
100
AcDbEntity
  8
EBENE_1
  0
POLYLINE
  5
44
330
1F
100
AcDbEntity
  8
EBENE_1
 62
   250
100
AcDb2dPolyline
 66
     1
 10
0.0
 20
0.0
 30
0.0
  0
VERTEX
  5
45
330
44
100
AcDbEntity
  8
EBENE_1
 62
   250
100
AcDbVertex
100
AcDb2dVertex
 10
72.4686170608759
 20
-151.6386338596598
 30
0.0
  0
VERTEX
  5
46
330
44
100
AcDbEntity
  8
EBENE_1
 62
   250
100
AcDbVertex
100
AcDb2dVertex
 10
72.4686170608759
 20
-167.8950059259082
 30
0.0
  0
SEQEND
  5
47
330
44
100
AcDbEntity
  8
EBENE_1
  0
POLYLINE
  5
48
330
1F
100
AcDbEntity
  8
EBENE_1
 62
   250
100
AcDb2dPolyline
 66
     1
 10
0.0
 20
0.0
 30
0.0
  0
VERTEX
  5
49
330
48
100
AcDbEntity
  8
EBENE_1
 62
   250
100
AcDbVertex
100
AcDb2dVertex
 10
108.9725043130347
 20
-151.3489013293503
 30
0.0
  0
VERTEX
  5
4A
330
48
100
AcDbEntity
  8
EBENE_1
 62
   250
100
AcDbVertex
100
AcDb2dVertex
 10
93.34434540852156
 20
-151.3489013293503
 30
0.0
  0
SEQEND
  5
4B
330
48
100
AcDbEntity
  8
EBENE_1
  0
POLYLINE
  5
4C
330
1F
100
AcDbEntity
  8
EBENE_1
 62
   250
100
AcDb2dPolyline
 66
     1
 10
0.0
 20
0.0
 30
0.0
  0
VERTEX
  5
4D
330
4C
100
AcDbEntity
  8
EBENE_1
 62
   250
100
AcDbVertex
100
AcDb2dVertex
 10
108.9725043130347
 20
-167.6056179051472
 30
0.0
  0
VERTEX
  5
4E
330
4C
100
AcDbEntity
  8
EBENE_1
 62
   250
100
AcDbVertex
100
AcDb2dVertex
 10
93.5241793928516
 20
-167.6056179051472
 30
0.0
  0
SEQEND
  5
4F
330
4C
100
AcDbEntity
  8
EBENE_1
  0
POLYLINE
  5
50
330
1F
100
AcDbEntity
  8
EBENE_1
 62
   250
100
AcDb2dPolyline
 66
     1
 10
0.0
 20
0.0
 30
0.0
  0
VERTEX
  5
51
330
50
100
AcDbEntity
  8
EBENE_1
 62
   250
100
AcDbVertex
100
AcDb2dVertex
 10
98.93883596701876
 20
-163.0246744384105
 30
0.0
  0
VERTEX
  5
52
330
50
100
AcDbEntity
  8
EBENE_1
 62
   250
100
AcDbVertex
100
AcDb2dVertex
 10
98.93883596701876
 20
-161.1226372210041
 30
0.0
  0
SEQEND
  5
53
330
50
100
AcDbEntity
  8
EBENE_1
  0
POLYLINE
  5
54
330
1F
100
AcDbEntity
  8
EBENE_1
 62
   250
100
AcDb2dPolyline
 66
     1
 10
0.0
 20
0.0
 30
0.0
  0
VERTEX
  5
55
330
54
100
AcDbEntity
  8
EBENE_1
 62
   250
100
AcDbVertex
100
AcDb2dVertex
 10
54.93928221282768
 20
-151.6896212728415
 30
0.0
  0
VERTEX
  5
56
330
54
100
AcDbEntity
  8
EBENE_1
 62
   250
100
AcDbVertex
100
AcDb2dVertex
 10
52.16270750649058
 20
-145.1470404368035
 30
0.0
  0
SEQEND
  5
57
330
54
100
AcDbEntity
  8
EBENE_1
  0
MTEXT
  5
58
330
1F
100
AcDbEntity
  8
EBENE_1
 62
   250
100
AcDbMText
 10
47.30064424815748
 20
-145.0152655344927
 30
0.0
 40
2.613723387488625
 41
0.0
 71
     7
 72
     1
  1
\fFutura Book|b0|i0|c0|p34;\W1;R40
 11
0.3359082677675056
 21
-0.9418947051796361
 31
0.0
  0
POLYLINE
  5
59
330
1F
100
AcDbEntity
  8
EBENE_1
100
AcDb2dPolyline
 66
     1
 10
0.0
 20
0.0
 30
0.0
  0
VERTEX
  5
5A
330
59
100
AcDbEntity
  8
EBENE_1
100
AcDbVertex
100
AcDb2dVertex
 10
56.05497638572584
 20
-153.3959770666857
 30
0.0
  0
VERTEX
  5
5B
330
59
100
AcDbEntity
  8
EBENE_1
100
AcDbVertex
100
AcDb2dVertex
 10
55.74853514231287
 20
-149.5043972065475
 30
0.0
  0
VERTEX
  5
5C
330
59
100
AcDbEntity
  8
EBENE_1
100
AcDbVertex
100
AcDb2dVertex
 10
52.74423962440075
 20
-151.0564127226526
 30
0.0
  0
VERTEX
  5
5D
330
59
100
AcDbEntity
  8
EBENE_1
100
AcDbVertex
100
AcDb2dVertex
 10
56.05497638572584
 20
-153.3959770666857
 30
0.0
  0
SEQEND
  5
5E
330
59
100
AcDbEntity
  8
EBENE_1
  0
INSERT
  5
5F
330
1F
100
AcDbEntity
  8
EBENE_1
 62
   250
100
AcDbBlockReference
  2
*U1
 10
0.0
 20
0.0
 30
0.0
1001
ACAD
1002
{
1000
R14_HATCH_DATA
1000
5F
1011
1.0
1021
0.0
1031
0.0
1011
0.0
1021
1.0
1031
0.0
1011
0.0
1021
0.0
1031
1.0
1040
0.0
1010
0.0
1020
0.0
1030
1.0
1000
SOLID
1070
     1
1070
     1
1071
        1
1071
        1
1071
        3
1070
     1
1040
56.05497638572584
1040
-153.3959770666857
1040
55.74853514231287
1040
-149.5043972065475
1070
     1
1040
55.74853514231287
1040
-149.5043972065475
1040
52.74423962440075
1040
-151.0564127226526
1070
     1
1040
52.74423962440075
1040
-151.0564127226526
1040
56.05497638572584
1040
-153.3959770666857
1071
        0
1070
     2
1070
     1
1071
        0
1002
}
  0
POLYLINE
  5
60
330
1F
100
AcDbEntity
  8
EBENE_1
 62
   250
100
AcDb2dPolyline
 66
     1
 10
0.0
 20
0.0
 30
0.0
  0
VERTEX
  5
61
330
60
100
AcDbEntity
  8
EBENE_1
 62
   250
100
AcDbVertex
100
AcDb2dVertex
 10
123.8119086061998
 20
-162.44555388734
 30
0.0
  0
VERTEX
  5
62
330
60
100
AcDbEntity
  8
EBENE_1
 62
   250
100
AcDbVertex
100
AcDb2dVertex
 10
131.5368462127755
 20
-162.44555388734
 30
0.0
  0
SEQEND
  5
63
330
60
100
AcDbEntity
  8
EBENE_1
  0
POLYLINE
  5
64
330
1F
100
AcDbEntity
  8
EBENE_1
 62
   250
100
AcDb2dPolyline
 66
     1
 10
0.0
 20
0.0
 30
0.0
  0
VERTEX
  5
65
330
64
100
AcDbEntity
  8
EBENE_1
 62
   250
100
AcDbVertex
100
AcDb2dVertex
 10
123.3633571740203
 20
-160.1552544087459
 30
0.0
  0
VERTEX
  5
66
330
64
100
AcDbEntity
  8
EBENE_1
 62
   250
100
AcDbVertex
100
AcDb2dVertex
 10
132.2100178705933
 20
-160.1552544087459
 30
0.0
  0
SEQEND
  5
67
330
64
100
AcDbEntity
  8
EBENE_1
  0
POLYLINE
  5
68
330
1F
100
AcDbEntity
  8
EBENE_1
 62
   250
100
AcDb2dPolyline
 66
     1
 10
0.0
 20
0.0
 30
0.0
  0
VERTEX
  5
69
330
68
100
AcDbEntity
  8
EBENE_1
 62
   250
100
AcDbVertex
100
AcDb2dVertex
 10
124.3514105591899
 20
-161.0537353112991
 30
0.0
  0
VERTEX
  5
6A
330
68
100
AcDbEntity
  8
EBENE_1
 62
   250
100
AcDbVertex
100
AcDb2dVertex
 10
131.6712049367003
 20
-161.0537353112991
 30
0.0
  0
SEQEND
  5
6B
330
68
100
AcDbEntity
  8
EBENE_1
  0
POLYLINE
  5
6C
330
1F
100
AcDbEntity
  8
EBENE_1
 62
   250
100
AcDb2dPolyline
 66
     1
 10
0.0
 20
0.0
 30
0.0
  0
VERTEX
  5
6D
330
6C
100
AcDbEntity
  8
EBENE_1
 62
   250
100
AcDbVertex
100
AcDb2dVertex
 10
127.6742051547134
 20
-163.3430012612476
 30
0.0
  0
VERTEX
  5
6E
330
6C
100
AcDbEntity
  8
EBENE_1
 62
   250
100
AcDbVertex
100
AcDb2dVertex
 10
127.6742051547134
 20
-157.9548719223168
 30
0.0
  0
SEQEND
  5
6F
330
6C
100
AcDbEntity
  8
EBENE_1
  0
POLYLINE
  5
70
330
1F
100
AcDbEntity
  8
EBENE_1
 62
   250
100
AcDb2dPolyline
 66
     1
 10
0.0
 20
0.0
 30
0.0
  0
VERTEX
  5
71
330
70
100
AcDbEntity
  8
EBENE_1
 62
   250
100
AcDbVertex
100
AcDb2dVertex
 10
119.7477294622506
 20
-144.257516782512
 30
0.0
  0
VERTEX
  5
72
330
70
100
AcDbEntity
  8
EBENE_1
 62
   250
100
AcDbVertex
100
AcDb2dVertex
 10
136.0051350571445
 20
-144.257516782512
 30
0.0
  0
SEQEND
  5
73
330
70
100
AcDbEntity
  8
EBENE_1
  0
POLYLINE
  5
74
330
1F
100
AcDbEntity
  8
EBENE_1
 62
   250
100
AcDb2dPolyline
 66
     1
 10
0.0
 20
0.0
 30
0.0
  0
VERTEX
  5
75
330
74
100
AcDbEntity
  8
EBENE_1
 62
   250
100
AcDbVertex
100
AcDb2dVertex
 10
136.0051350571445
 20
-143.3318196256254
 30
0.0
  0
VERTEX
  5
76
330
74
100
AcDbEntity
  8
EBENE_1
 62
   250
100
AcDbVertex
100
AcDb2dVertex
 10
136.0051350571445
 20
-127.7036607211123
 30
0.0
  0
SEQEND
  5
77
330
74
100
AcDbEntity
  8
EBENE_1
  0
POLYLINE
  5
78
330
1F
100
AcDbEntity
  8
EBENE_1
 62
   250
100
AcDb2dPolyline
 66
     1
 10
0.0
 20
0.0
 30
0.0
  0
VERTEX
  5
79
330
78
100
AcDbEntity
  8
EBENE_1
 62
   250
100
AcDbVertex
100
AcDb2dVertex
 10
134.2085177615868
 20
-143.1519856412953
 30
0.0
  0
VERTEX
  5
7A
330
78
100
AcDbEntity
  8
EBENE_1
 62
   250
100
AcDbVertex
100
AcDb2dVertex
 10
134.2085177615868
 20
-134.1711384755718
 30
0.0
  0
SEQEND
  5
7B
330
78
100
AcDbEntity
  8
EBENE_1
  0
POLYLINE
  5
7C
330
1F
100
AcDbEntity
  8
EBENE_1
 62
   250
100
AcDb2dPolyline
 66
     1
 10
0.0
 20
0.0
 30
0.0
  0
VERTEX
  5
7D
330
7C
100
AcDbEntity
  8
EBENE_1
 62
   250
100
AcDbVertex
100
AcDb2dVertex
 10
119.7477294622506
 20
-143.3318196256254
 30
0.0
  0
VERTEX
  5
7E
330
7C
100
AcDbEntity
  8
EBENE_1
 62
   250
100
AcDbVertex
100
AcDb2dVertex
 10
119.7477294622506
 20
-127.8833224506681
 30
0.0
  0
SEQEND
  5
7F
330
7C
100
AcDbEntity
  8
EBENE_1
  0
POLYLINE
  5
80
330
1F
100
AcDbEntity
  8
EBENE_1
 62
   250
100
AcDb2dPolyline
 66
     1
 10
0.0
 20
0.0
 30
0.0
  0
VERTEX
  5
81
330
80
100
AcDbEntity
  8
EBENE_1
 62
   250
100
AcDbVertex
100
AcDb2dVertex
 10
121.5443467578084
 20
-143.3318196256254
 30
0.0
  0
VERTEX
  5
82
330
80
100
AcDbEntity
  8
EBENE_1
 62
   250
100
AcDbVertex
100
AcDb2dVertex
 10
121.5443467578084
 20
-134.3508002051276
 30
0.0
  0
SEQEND
  5
83
330
80
100
AcDbEntity
  8
EBENE_1
  0
SPLINE
  5
84
330
1F
100
AcDbEntity
  8
EBENE_1
100
AcDbSpline
210
0.0
220
0.0
230
1.0
 70
    11
 71
     3
 72
    53
 73
    49
 74
     0
 42
0.0000000001
 43
0.0000000001
 40
0.0
 40
0.0
 40
0.0
 40
0.0
 40
1.0
 40
1.0
 40
1.0
 40
2.0
 40
2.0
 40
2.0
 40
3.0
 40
3.0
 40
3.0
 40
4.0
 40
4.0
 40
4.0
 40
5.0
 40
5.0
 40
5.0
 40
6.0
 40
6.0
 40
6.0
 40
7.0
 40
7.0
 40
7.0
 40
8.0
 40
8.0
 40
8.0
 40
9.0
 40
9.0
 40
9.0
 40
10.0
 40
10.0
 40
10.0
 40
11.0
 40
11.0
 40
11.0
 40
12.0
 40
12.0
 40
12.0
 40
13.0
 40
13.0
 40
13.0
 40
14.0
 40
14.0
 40
14.0
 40
15.0
 40
15.0
 40
15.0
 40
16.0
 40
16.0
 40
16.0
 40
16.0
 10
131.7387288082112
 20
-162.5799126112647
 30
0.0
 10
131.7387288082112
 20
-162.5799126112647
 30
0.0
 10
130.323828092419
 20
-162.5799126112647
 30
0.0
 10
130.323828092419
 20
-162.5799126112647
 30
0.0
 10
130.323828092419
 20
-162.5799126112647
 30
0.0
 10
130.3152153537059
 20
-161.0154947514128
 30
0.0
 10
130.840247905658
 20
-160.2451714009109
 30
0.0
 10
131.405932584336
 20
-159.4155924080628
 30
0.0
 10
132.5124972541983
 20
-159.7414984409674
 30
0.0
 10
133.01892629053
 20
-158.8747124168785
 30
0.0
 10
133.3951307175193
 20
-158.2301350515883
 30
0.0
 10
133.3555121194389
 20
-156.9888671482528
 30
0.0
 10
133.3555121194389
 20
-156.9888671482528
 30
0.0
 10
133.3555121194389
 20
-156.9888671482528
 30
0.0
 10
133.3555121194389
 20
-145.47019039332
 30
0.0
 10
133.3555121194389
 20
-145.47019039332
 30
0.0
 10
133.4175238381734
 20
-145.074521176839
 30
0.0
 10
133.5491264857099
 20
-144.8356038049369
 30
0.0
 10
133.8491943024752
 20
-144.5717094907668
 30
0.0
 10
134.2198865766881
 20
-144.2463202221849
 30
0.0
 10
134.5736978830232
 20
-144.1412448098848
 30
0.0
 10
135.0622124228317
 20
-144.2123860316553
 30
0.0
 10
135.0622124228317
 20
-144.2123860316553
 30
0.0
 10
136.0051350571445
 20
-144.2123860316553
 30
0.0
 10
136.0051350571445
 20
-144.2123860316553
 30
0.0
 10
136.0051350571445
 20
-144.2123860316553
 30
0.0
 10
136.0051350571445
 20
-145.47019039332
 30
0.0
 10
136.0051350571445
 20
-145.47019039332
 30
0.0
 10
136.0051350571445
 20
-145.47019039332
 30
0.0
 10
135.3312743802297
 20
-145.3797566368322
 30
0.0
 10
135.3312743802297
 20
-145.3797566368322
 30
0.0
 10
135.1311143325367
 20
-145.4207532731066
 30
0.0
 10
135.0122585382956
 20
-145.4917222401028
 30
0.0
 10
134.8820339289531
 20
-145.6498521228757
 30
0.0
 10
134.7521538291592
 20
-145.8072929865517
 30
0.0
 10
134.7046115114627
 20
-145.9382066149911
 30
0.0
 10
134.7021999446231
 20
-146.1431897963635
 30
0.0
 10
134.7021999446231
 20
-146.1431897963635
 30
0.0
 10
134.7021999446231
 20
-157.72990718713
 30
0.0
 10
134.7021999446231
 20
-157.72990718713
 30
0.0
 10
134.7021999446231
 20
-157.72990718713
 30
0.0
 10
134.7021999446231
 20
-159.5258354635908
 30
0.0
 10
134.3428764855115
 20
-160.0653374165809
 30
0.0
 10
133.9797634213662
 20
-160.6106960318959
 30
0.0
 10
132.5800211257092
 20
-160.5159559060516
 30
0.0
 10
132.0760036562171
 20
-161.4123697513136
 30
0.0
 10
131.8434597109627
 20
-161.8257812095435
 30
0.0
 10
131.7552652665404
 20
-162.3525363092383
 30
0.0
 10
131.7387288082112
 20
-162.5799126112647
 30
0.0
  0
INSERT
  5
85
330
1F
100
AcDbEntity
  8
EBENE_1
 62
   250
100
AcDbBlockReference
  2
*U2
 10
0.0
 20
0.0
 30
0.0
1001
ACAD
1002
{
1000
R14_HATCH_DATA
1000
85
1011
1.0
1021
0.0
1031
0.0
1011
0.0
1021
1.0
1031
0.0
1011
0.0
1021
0.0
1031
1.0
1040
0.0
1010
0.0
1020
0.0
1030
1.0
1000
SOLID
1070
     1
1070
     1
1071
        1
1071
        1
1071
        1
1070
     4
1070
     3
1070
     0
1070
     1
1071
       53
1071
       49
1040
0.0
1040
0.0
1040
0.0
1040
0.0
1040
1.0
1040
1.0
1040
1.0
1040
2.0
1040
2.0
1040
2.0
1040
3.0
1040
3.0
1040
3.0
1040
4.0
1040
4.0
1040
4.0
1040
5.0
1040
5.0
1040
5.0
1040
6.0
1040
6.0
1040
6.0
1040
7.0
1040
7.0
1040
7.0
1040
8.0
1040
8.0
1040
8.0
1040
9.0
1040
9.0
1040
9.0
1040
10.0
1040
10.0
1040
10.0
1040
11.0
1040
11.0
1040
11.0
1040
12.0
1040
12.0
1040
12.0
1040
13.0
1040
13.0
1040
13.0
1040
14.0
1040
14.0
1040
14.0
1040
15.0
1040
15.0
1040
15.0
1040
16.0
1040
16.0
1040
16.0
1040
16.0
1040
131.7387288082112
1040
-162.5799126112647
1040
131.7387288082112
1040
-162.5799126112647
1040
130.323828092419
1040
-162.5799126112647
1040
130.323828092419
1040
-162.5799126112647
1040
130.323828092419
1040
-162.5799126112647
1040
130.3152153537059
1040
-161.0154947514128
1040
130.840247905658
1040
-160.2451714009109
1040
131.405932584336
1040
-159.4155924080628
1040
132.5124972541983
1040
-159.7414984409674
1040
133.01892629053
1040
-158.8747124168785
1040
133.3951307175193
1040
-158.2301350515883
1040
133.3555121194389
1040
-156.9888671482528
1040
133.3555121194389
1040
-156.9888671482528
1040
133.3555121194389
1040
-156.9888671482528
1040
133.3555121194389
1040
-145.47019039332
1040
133.3555121194389
1040
-145.47019039332
1040
133.4175238381734
1040
-145.074521176839
1040
133.5491264857099
1040
-144.8356038049369
1040
133.8491943024752
1040
-144.5717094907668
1040
134.2198865766881
1040
-144.2463202221849
1040
134.5736978830232
1040
-144.1412448098848
1040
135.0622124228317
1040
-144.2123860316553
1040
135.0622124228317
1040
-144.2123860316553
1040
136.0051350571445
1040
-144.2123860316553
1040
136.0051350571445
1040
-144.2123860316553
1040
136.0051350571445
1040
-144.2123860316553
1040
136.0051350571445
1040
-145.47019039332
1040
136.0051350571445
1040
-145.47019039332
1040
136.0051350571445
1040
-145.47019039332
1040
135.3312743802297
1040
-145.3797566368322
1040
135.3312743802297
1040
-145.3797566368322
1040
135.1311143325367
1040
-145.4207532731066
1040
135.0122585382956
1040
-145.4917222401028
1040
134.8820339289531
1040
-145.6498521228757
1040
134.7521538291592
1040
-145.8072929865517
1040
134.7046115114627
1040
-145.9382066149911
1040
134.7021999446231
1040
-146.1431897963635
1040
134.7021999446231
1040
-146.1431897963635
1040
134.7021999446231
1040
-157.72990718713
1040
134.7021999446231
1040
-157.72990718713
1040
134.7021999446231
1040
-157.72990718713
1040
134.7021999446231
1040
-159.5258354635908
1040
134.3428764855115
1040
-160.0653374165809
1040
133.9797634213662
1040
-160.6106960318959
1040
132.5800211257092
1040
-160.5159559060516
1040
132.0760036562171
1040
-161.4123697513136
1040
131.8434597109627
1040
-161.8257812095435
1040
131.7552652665404
1040
-162.3525363092383
1040
131.7387288082112
1040
-162.5799126112647
1071
        0
1070
     2
1070
     1
1071
        0
1002
}
  0
SPLINE
  5
86
330
1F
100
AcDbEntity
  8
EBENE_1
 62
   250
100
AcDbSpline
210
0.0
220
0.0
230
1.0
 70
    11
 71
     3
 72
    53
 73
    49
 74
     0
 42
0.0000000001
 43
0.0000000001
 40
0.0
 40
0.0
 40
0.0
 40
0.0
 40
1.0
 40
1.0
 40
1.0
 40
2.0
 40
2.0
 40
2.0
 40
3.0
 40
3.0
 40
3.0
 40
4.0
 40
4.0
 40
4.0
 40
5.0
 40
5.0
 40
5.0
 40
6.0
 40
6.0
 40
6.0
 40
7.0
 40
7.0
 40
7.0
 40
8.0
 40
8.0
 40
8.0
 40
9.0
 40
9.0
 40
9.0
 40
10.0
 40
10.0
 40
10.0
 40
11.0
 40
11.0
 40
11.0
 40
12.0
 40
12.0
 40
12.0
 40
13.0
 40
13.0
 40
13.0
 40
14.0
 40
14.0
 40
14.0
 40
15.0
 40
15.0
 40
15.0
 40
16.0
 40
16.0
 40
16.0
 40
16.0
 10
131.7387288082112
 20
-162.5799126112647
 30
0.0
 10
131.7387288082112
 20
-162.5799126112647
 30
0.0
 10
130.323828092419
 20
-162.5799126112647
 30
0.0
 10
130.323828092419
 20
-162.5799126112647
 30
0.0
 10
130.323828092419
 20
-162.5799126112647
 30
0.0
 10
130.3152153537059
 20
-161.0154947514128
 30
0.0
 10
130.840247905658
 20
-160.2451714009109
 30
0.0
 10
131.405932584336
 20
-159.4155924080628
 30
0.0
 10
132.5124972541983
 20
-159.7414984409674
 30
0.0
 10
133.01892629053
 20
-158.8747124168785
 30
0.0
 10
133.3951307175193
 20
-158.2301350515883
 30
0.0
 10
133.3555121194389
 20
-156.9888671482528
 30
0.0
 10
133.3555121194389
 20
-156.9888671482528
 30
0.0
 10
133.3555121194389
 20
-156.9888671482528
 30
0.0
 10
133.3555121194389
 20
-145.47019039332
 30
0.0
 10
133.3555121194389
 20
-145.47019039332
 30
0.0
 10
133.4175238381734
 20
-145.074521176839
 30
0.0
 10
133.5491264857099
 20
-144.8356038049369
 30
0.0
 10
133.8491943024752
 20
-144.5717094907668
 30
0.0
 10
134.2198865766881
 20
-144.2463202221849
 30
0.0
 10
134.5736978830232
 20
-144.1412448098848
 30
0.0
 10
135.0622124228317
 20
-144.2123860316553
 30
0.0
 10
135.0622124228317
 20
-144.2123860316553
 30
0.0
 10
136.0051350571445
 20
-144.2123860316553
 30
0.0
 10
136.0051350571445
 20
-144.2123860316553
 30
0.0
 10
136.0051350571445
 20
-144.2123860316553
 30
0.0
 10
136.0051350571445
 20
-145.47019039332
 30
0.0
 10
136.0051350571445
 20
-145.47019039332
 30
0.0
 10
136.0051350571445
 20
-145.47019039332
 30
0.0
 10
135.3312743802297
 20
-145.3797566368322
 30
0.0
 10
135.3312743802297
 20
-145.3797566368322
 30
0.0
 10
135.1311143325367
 20
-145.4207532731066
 30
0.0
 10
135.0122585382956
 20
-145.4917222401028
 30
0.0
 10
134.8820339289531
 20
-145.6498521228757
 30
0.0
 10
134.7521538291592
 20
-145.8072929865517
 30
0.0
 10
134.7046115114627
 20
-145.9382066149911
 30
0.0
 10
134.7021999446231
 20
-146.1431897963635
 30
0.0
 10
134.7021999446231
 20
-146.1431897963635
 30
0.0
 10
134.7021999446231
 20
-157.72990718713
 30
0.0
 10
134.7021999446231
 20
-157.72990718713
 30
0.0
 10
134.7021999446231
 20
-157.72990718713
 30
0.0
 10
134.7021999446231
 20
-159.5258354635908
 30
0.0
 10
134.3428764855115
 20
-160.0653374165809
 30
0.0
 10
133.9797634213662
 20
-160.6106960318959
 30
0.0
 10
132.5800211257092
 20
-160.5159559060516
 30
0.0
 10
132.0760036562171
 20
-161.4123697513136
 30
0.0
 10
131.8434597109627
 20
-161.8257812095435
 30
0.0
 10
131.7552652665404
 20
-162.3525363092383
 30
0.0
 10
131.7387288082112
 20
-162.5799126112647
 30
0.0
  0
SPLINE
  5
87
330
1F
100
AcDbEntity
  8
EBENE_1
100
AcDbSpline
210
0.0
220
0.0
230
1.0
 70
    11
 71
     3
 72
    53
 73
    49
 74
     0
 42
0.0000000001
 43
0.0000000001
 40
0.0
 40
0.0
 40
0.0
 40
0.0
 40
1.0
 40
1.0
 40
1.0
 40
2.0
 40
2.0
 40
2.0
 40
3.0
 40
3.0
 40
3.0
 40
4.0
 40
4.0
 40
4.0
 40
5.0
 40
5.0
 40
5.0
 40
6.0
 40
6.0
 40
6.0
 40
7.0
 40
7.0
 40
7.0
 40
8.0
 40
8.0
 40
8.0
 40
9.0
 40
9.0
 40
9.0
 40
10.0
 40
10.0
 40
10.0
 40
11.0
 40
11.0
 40
11.0
 40
12.0
 40
12.0
 40
12.0
 40
13.0
 40
13.0
 40
13.0
 40
14.0
 40
14.0
 40
14.0
 40
15.0
 40
15.0
 40
15.0
 40
16.0
 40
16.0
 40
16.0
 40
16.0
 10
124.014135711184
 20
-162.5799126112647
 30
0.0
 10
124.014135711184
 20
-162.5799126112647
 30
0.0
 10
125.4286919174276
 20
-162.5799126112647
 30
0.0
 10
125.4286919174276
 20
-162.5799126112647
 30
0.0
 10
125.4286919174276
 20
-162.5799126112647
 30
0.0
 10
125.4376491656892
 20
-161.0154947514128
 30
0.0
 10
124.9126166137371
 20
-160.2451714009109
 30
0.0
 10
124.3472764446076
 20
-159.4155924080628
 30
0.0
 10
123.2403672651969
 20
-159.7414984409674
 30
0.0
 10
122.7339382288651
 20
-158.8747124168785
 30
0.0
 10
122.3580783114244
 20
-158.2301350515883
 30
0.0
 10
122.3973523999562
 20
-156.9888671482528
 30
0.0
 10
122.3973523999562
 20
-156.9888671482528
 30
0.0
 10
122.3973523999562
 20
-156.9888671482528
 30
0.0
 10
122.3973523999562
 20
-145.47019039332
 30
0.0
 10
122.3973523999562
 20
-145.47019039332
 30
0.0
 10
122.3353406812217
 20
-145.074521176839
 30
0.0
 10
122.2040825432337
 20
-144.8356038049369
 30
0.0
 10
121.9036702169199
 20
-144.5717094907668
 30
0.0
 10
121.5333224522556
 20
-144.2463202221849
 30
0.0
 10
121.1791666363719
 20
-144.1412448098848
 30
0.0
 10
120.690996606112
 20
-144.2123860316553
 30
0.0
 10
120.690996606112
 20
-144.2123860316553
 30
0.0
 10
119.7477294622506
 20
-144.2123860316553
 30
0.0
 10
119.7477294622506
 20
-144.2123860316553
 30
0.0
 10
119.7477294622506
 20
-144.2123860316553
 30
0.0
 10
119.7477294622506
 20
-145.47019039332
 30
0.0
 10
119.7477294622506
 20
-145.47019039332
 30
0.0
 10
119.7477294622506
 20
-145.47019039332
 30
0.0
 10
120.4215901391654
 20
-145.3797566368322
 30
0.0
 10
120.4215901391654
 20
-145.3797566368322
 30
0.0
 10
120.622094696407
 20
-145.4207532731066
 30
0.0
 10
120.7406059810996
 20
-145.4917222401028
 30
0.0
 10
120.870830590442
 20
-145.6498521228757
 30
0.0
 10
121.0007106902359
 20
-145.8072929865517
 30
0.0
 10
121.0489420270294
 20
-145.9382066149911
 30
0.0
 10
121.0503200652235
 20
-146.1431897963635
 30
0.0
 10
121.0503200652235
 20
-146.1431897963635
 30
0.0
 10
121.0503200652235
 20
-157.72990718713
 30
0.0
 10
121.0503200652235
 20
-157.72990718713
 30
0.0
 10
121.0503200652235
 20
-157.72990718713
 30
0.0
 10
121.0503200652235
 20
-159.5258354635908
 30
0.0
 10
121.4096435243351
 20
-160.0653374165809
 30
0.0
 10
121.7734456075775
 20
-160.6106960318959
 30
0.0
 10
123.172843393686
 20
-160.5159559060516
 30
0.0
 10
123.6778943918236
 20
-161.4123697513136
 30
0.0
 10
123.9097493179809
 20
-161.8257812095435
 30
0.0
 10
123.9972547433062
 20
-162.3525363092383
 30
0.0
 10
124.014135711184
 20
-162.5799126112647
 30
0.0
  0
INSERT
  5
88
330
1F
100
AcDbEntity
  8
EBENE_1
 62
   250
100
AcDbBlockReference
  2
*U3
 10
0.0
 20
0.0
 30
0.0
1001
ACAD
1002
{
1000
R14_HATCH_DATA
1000
88
1011
1.0
1021
0.0
1031
0.0
1011
0.0
1021
1.0
1031
0.0
1011
0.0
1021
0.0
1031
1.0
1040
0.0
1010
0.0
1020
0.0
1030
1.0
1000
SOLID
1070
     1
1070
     1
1071
        1
1071
        1
1071
        1
1070
     4
1070
     3
1070
     0
1070
     1
1071
       53
1071
       49
1040
0.0
1040
0.0
1040
0.0
1040
0.0
1040
1.0
1040
1.0
1040
1.0
1040
2.0
1040
2.0
1040
2.0
1040
3.0
1040
3.0
1040
3.0
1040
4.0
1040
4.0
1040
4.0
1040
5.0
1040
5.0
1040
5.0
1040
6.0
1040
6.0
1040
6.0
1040
7.0
1040
7.0
1040
7.0
1040
8.0
1040
8.0
1040
8.0
1040
9.0
1040
9.0
1040
9.0
1040
10.0
1040
10.0
1040
10.0
1040
11.0
1040
11.0
1040
11.0
1040
12.0
1040
12.0
1040
12.0
1040
13.0
1040
13.0
1040
13.0
1040
14.0
1040
14.0
1040
14.0
1040
15.0
1040
15.0
1040
15.0
1040
16.0
1040
16.0
1040
16.0
1040
16.0
1040
124.014135711184
1040
-162.5799126112647
1040
124.014135711184
1040
-162.5799126112647
1040
125.4286919174276
1040
-162.5799126112647
1040
125.4286919174276
1040
-162.5799126112647
1040
125.4286919174276
1040
-162.5799126112647
1040
125.4376491656892
1040
-161.0154947514128
1040
124.9126166137371
1040
-160.2451714009109
1040
124.3472764446076
1040
-159.4155924080628
1040
123.2403672651969
1040
-159.7414984409674
1040
122.7339382288651
1040
-158.8747124168785
1040
122.3580783114244
1040
-158.2301350515883
1040
122.3973523999562
1040
-156.9888671482528
1040
122.3973523999562
1040
-156.9888671482528
1040
122.3973523999562
1040
-156.9888671482528
1040
122.3973523999562
1040
-145.47019039332
1040
122.3973523999562
1040
-145.47019039332
1040
122.3353406812217
1040
-145.074521176839
1040
122.2040825432337
1040
-144.8356038049369
1040
121.9036702169199
1040
-144.5717094907668
1040
121.5333224522556
1040
-144.2463202221849
1040
121.1791666363719
1040
-144.1412448098848
1040
120.690996606112
1040
-144.2123860316553
1040
120.690996606112
1040
-144.2123860316553
1040
119.7477294622506
1040
-144.2123860316553
1040
119.7477294622506
1040
-144.2123860316553
1040
119.7477294622506
1040
-144.2123860316553
1040
119.7477294622506
1040
-145.47019039332
1040
119.7477294622506
1040
-145.47019039332
1040
119.7477294622506
1040
-145.47019039332
1040
120.4215901391654
1040
-145.3797566368322
1040
120.4215901391654
1040
-145.3797566368322
1040
120.622094696407
1040
-145.4207532731066
1040
120.7406059810996
1040
-145.4917222401028
1040
120.870830590442
1040
-145.6498521228757
1040
121.0007106902359
1040
-145.8072929865517
1040
121.0489420270294
1040
-145.9382066149911
1040
121.0503200652235
1040
-146.1431897963635
1040
121.0503200652235
1040
-146.1431897963635
1040
121.0503200652235
1040
-157.72990718713
1040
121.0503200652235
1040
-157.72990718713
1040
121.0503200652235
1040
-157.72990718713
1040
121.0503200652235
1040
-159.5258354635908
1040
121.4096435243351
1040
-160.0653374165809
1040
121.7734456075775
1040
-160.6106960318959
1040
123.172843393686
1040
-160.5159559060516
1040
123.6778943918236
1040
-161.4123697513136
1040
123.9097493179809
1040
-161.8257812095435
1040
123.9972547433062
1040
-162.3525363092383
1040
124.014135711184
1040
-162.5799126112647
1071
        0
1070
     2
1070
     1
1071
        0
1002
}
  0
SPLINE
  5
89
330
1F
100
AcDbEntity
  8
EBENE_1
 62
   250
100
AcDbSpline
210
0.0
220
0.0
230
1.0
 70
    11
 71
     3
 72
    53
 73
    49
 74
     0
 42
0.0000000001
 43
0.0000000001
 40
0.0
 40
0.0
 40
0.0
 40
0.0
 40
1.0
 40
1.0
 40
1.0
 40
2.0
 40
2.0
 40
2.0
 40
3.0
 40
3.0
 40
3.0
 40
4.0
 40
4.0
 40
4.0
 40
5.0
 40
5.0
 40
5.0
 40
6.0
 40
6.0
 40
6.0
 40
7.0
 40
7.0
 40
7.0
 40
8.0
 40
8.0
 40
8.0
 40
9.0
 40
9.0
 40
9.0
 40
10.0
 40
10.0
 40
10.0
 40
11.0
 40
11.0
 40
11.0
 40
12.0
 40
12.0
 40
12.0
 40
13.0
 40
13.0
 40
13.0
 40
14.0
 40
14.0
 40
14.0
 40
15.0
 40
15.0
 40
15.0
 40
16.0
 40
16.0
 40
16.0
 40
16.0
 10
124.014135711184
 20
-162.5799126112647
 30
0.0
 10
124.014135711184
 20
-162.5799126112647
 30
0.0
 10
125.4286919174276
 20
-162.5799126112647
 30
0.0
 10
125.4286919174276
 20
-162.5799126112647
 30
0.0
 10
125.4286919174276
 20
-162.5799126112647
 30
0.0
 10
125.4376491656892
 20
-161.0154947514128
 30
0.0
 10
124.9126166137371
 20
-160.2451714009109
 30
0.0
 10
124.3472764446076
 20
-159.4155924080628
 30
0.0
 10
123.2403672651969
 20
-159.7414984409674
 30
0.0
 10
122.7339382288651
 20
-158.8747124168785
 30
0.0
 10
122.3580783114244
 20
-158.2301350515883
 30
0.0
 10
122.3973523999562
 20
-156.9888671482528
 30
0.0
 10
122.3973523999562
 20
-156.9888671482528
 30
0.0
 10
122.3973523999562
 20
-156.9888671482528
 30
0.0
 10
122.3973523999562
 20
-145.47019039332
 30
0.0
 10
122.3973523999562
 20
-145.47019039332
 30
0.0
 10
122.3353406812217
 20
-145.074521176839
 30
0.0
 10
122.2040825432337
 20
-144.8356038049369
 30
0.0
 10
121.9036702169199
 20
-144.5717094907668
 30
0.0
 10
121.5333224522556
 20
-144.2463202221849
 30
0.0
 10
121.1791666363719
 20
-144.1412448098848
 30
0.0
 10
120.690996606112
 20
-144.2123860316553
 30
0.0
 10
120.690996606112
 20
-144.2123860316553
 30
0.0
 10
119.7477294622506
 20
-144.2123860316553
 30
0.0
 10
119.7477294622506
 20
-144.2123860316553
 30
0.0
 10
119.7477294622506
 20
-144.2123860316553
 30
0.0
 10
119.7477294622506
 20
-145.47019039332
 30
0.0
 10
119.7477294622506
 20
-145.47019039332
 30
0.0
 10
119.7477294622506
 20
-145.47019039332
 30
0.0
 10
120.4215901391654
 20
-145.3797566368322
 30
0.0
 10
120.4215901391654
 20
-145.3797566368322
 30
0.0
 10
120.622094696407
 20
-145.4207532731066
 30
0.0
 10
120.7406059810996
 20
-145.4917222401028
 30
0.0
 10
120.870830590442
 20
-145.6498521228757
 30
0.0
 10
121.0007106902359
 20
-145.8072929865517
 30
0.0
 10
121.0489420270294
 20
-145.9382066149911
 30
0.0
 10
121.0503200652235
 20
-146.1431897963635
 30
0.0
 10
121.0503200652235
 20
-146.1431897963635
 30
0.0
 10
121.0503200652235
 20
-157.72990718713
 30
0.0
 10
121.0503200652235
 20
-157.72990718713
 30
0.0
 10
121.0503200652235
 20
-157.72990718713
 30
0.0
 10
121.0503200652235
 20
-159.5258354635908
 30
0.0
 10
121.4096435243351
 20
-160.0653374165809
 30
0.0
 10
121.7734456075775
 20
-160.6106960318959
 30
0.0
 10
123.172843393686
 20
-160.5159559060516
 30
0.0
 10
123.6778943918236
 20
-161.4123697513136
 30
0.0
 10
123.9097493179809
 20
-161.8257812095435
 30
0.0
 10
123.9972547433062
 20
-162.3525363092383
 30
0.0
 10
124.014135711184
 20
-162.5799126112647
 30
0.0
  0
POLYLINE
  5
8A
330
1F
100
AcDbEntity
  8
EBENE_1
 62
   250
100
AcDb2dPolyline
 66
     1
 10
0.0
 20
0.0
 30
0.0
  0
VERTEX
  5
8B
330
8A
100
AcDbEntity
  8
EBENE_1
 62
   250
100
AcDbVertex
100
AcDb2dVertex
 10
131.6370984913963
 20
-177.4017469174551
 30
0.0
  0
VERTEX
  5
8C
330
8A
100
AcDbEntity
  8
EBENE_1
 62
   250
100
AcDbVertex
100
AcDb2dVertex
 10
131.6370984913963
 20
-163.8501193166764
 30
0.0
  0
SEQEND
  5
8D
330
8A
100
AcDbEntity
  8
EBENE_1
  0
POLYLINE
  5
8E
330
1F
100
AcDbEntity
  8
EBENE_1
 62
   250
100
AcDb2dPolyline
 66
     1
 10
0.0
 20
0.0
 30
0.0
  0
VERTEX
  5
8F
330
8E
100
AcDbEntity
  8
EBENE_1
 62
   250
100
AcDbVertex
100
AcDb2dVertex
 10
123.7912380332883
 20
-177.3128634539357
 30
0.0
  0
VERTEX
  5
90
330
8E
100
AcDbEntity
  8
EBENE_1
 62
   250
100
AcDbVertex
100
AcDb2dVertex
 10
123.7912380332883
 20
-163.7608913436084
 30
0.0
  0
SEQEND
  5
91
330
8E
100
AcDbEntity
  8
EBENE_1
  0
POLYLINE
  5
92
330
1F
100
AcDbEntity
  8
EBENE_1
 62
   250
100
AcDb2dPolyline
 66
     1
 10
0.0
 20
0.0
 30
0.0
  0
VERTEX
  5
93
330
92
100
AcDbEntity
  8
EBENE_1
 62
   250
100
AcDbVertex
100
AcDb2dVertex
 10
150.6509249840387
 20
-162.7824842257974
 30
0.0
  0
VERTEX
  5
94
330
92
100
AcDbEntity
  8
EBENE_1
 62
   250
100
AcDbVertex
100
AcDb2dVertex
 10
132.819455261934
 20
-162.7824842257974
 30
0.0
  0
SEQEND
  5
95
330
92
100
AcDbEntity
  8
EBENE_1
  0
POLYLINE
  5
96
330
1F
100
AcDbEntity
  8
EBENE_1
 62
   250
100
AcDb2dPolyline
 66
     1
 10
0.0
 20
0.0
 30
0.0
  0
VERTEX
  5
97
330
96
100
AcDbEntity
  8
EBENE_1
 62
   250
100
AcDbVertex
100
AcDb2dVertex
 10
150.4821153052614
 20
-143.9085286098562
 30
0.0
  0
VERTEX
  5
98
330
96
100
AcDbEntity
  8
EBENE_1
 62
   250
100
AcDbVertex
100
AcDb2dVertex
 10
137.0541666324031
 20
-143.9085286098562
 30
0.0
  0
SEQEND
  5
99
330
96
100
AcDbEntity
  8
EBENE_1
  0
POLYLINE
  5
9A
330
1F
100
AcDbEntity
  8
EBENE_1
 62
   250
100
AcDb2dPolyline
 66
     1
 10
0.0
 20
0.0
 30
0.0
  0
VERTEX
  5
9B
330
9A
100
AcDbEntity
  8
EBENE_1
 62
   250
100
AcDbVertex
100
AcDb2dVertex
 10
142.3833848385361
 20
-146.4210367472489
 30
0.0
  0
VERTEX
  5
9C
330
9A
100
AcDbEntity
  8
EBENE_1
 62
   250
100
AcDbVertex
100
AcDb2dVertex
 10
142.3833848385361
 20
-148.3232462194296
 30
0.0
  0
SEQEND
  5
9D
330
9A
100
AcDbEntity
  8
EBENE_1
  0
POLYLINE
  5
9E
330
1F
100
AcDbEntity
  8
EBENE_1
 62
   250
100
AcDb2dPolyline
 66
     1
 10
0.0
 20
0.0
 30
0.0
  0
VERTEX
  5
9F
330
9E
100
AcDbEntity
  8
EBENE_1
 62
   250
100
AcDbVertex
100
AcDb2dVertex
 10
142.3833848385361
 20
-155.4557996573166
 30
0.0
  0
VERTEX
  5
A0
330
9E
100
AcDbEntity
  8
EBENE_1
 62
   250
100
AcDbVertex
100
AcDb2dVertex
 10
142.3833848385361
 20
-157.502186375555
 30
0.0
  0
SEQEND
  5
A1
330
9E
100
AcDbEntity
  8
EBENE_1
  0
POLYLINE
  5
A2
330
1F
100
AcDbEntity
  8
EBENE_1
 62
   250
100
AcDb2dPolyline
 66
     1
 10
0.0
 20
0.0
 30
0.0
  0
VERTEX
  5
A3
330
A2
100
AcDbEntity
  8
EBENE_1
 62
   250
100
AcDbVertex
100
AcDb2dVertex
 10
148.276909685153
 20
-148.3232462194296
 30
0.0
  0
VERTEX
  5
A4
330
A2
100
AcDbEntity
  8
EBENE_1
 62
   250
100
AcDbVertex
100
AcDb2dVertex
 10
148.2751871374104
 20
-143.7622843065074
 30
0.0
  0
SEQEND
  5
A5
330
A2
100
AcDbEntity
  8
EBENE_1
  0
POLYLINE
  5
A6
330
1F
100
AcDbEntity
  8
EBENE_1
 62
   250
100
AcDb2dPolyline
 66
     1
 10
0.0
 20
0.0
 30
0.0
  0
VERTEX
  5
A7
330
A6
100
AcDbEntity
  8
EBENE_1
 62
   250
100
AcDbVertex
100
AcDb2dVertex
 10
148.2720865514736
 20
-157.8091443832908
 30
0.0
  0
VERTEX
  5
A8
330
A6
100
AcDbEntity
  8
EBENE_1
 62
   250
100
AcDbVertex
100
AcDb2dVertex
 10
148.2672634177943
 20
-160.087730537235
 30
0.0
  0
SEQEND
  5
A9
330
A6
100
AcDbEntity
  8
EBENE_1
  0
POLYLINE
  5
AA
330
1F
100
AcDbEntity
  8
EBENE_1
 62
   250
100
AcDb2dPolyline
 66
     1
 10
0.0
 20
0.0
 30
0.0
  0
VERTEX
  5
AB
330
AA
100
AcDbEntity
  8
EBENE_1
 62
   250
100
AcDbVertex
100
AcDb2dVertex
 10
137.7090792841491
 20
-160.0612033019986
 30
0.0
  0
VERTEX
  5
AC
330
AA
100
AcDbEntity
  8
EBENE_1
 62
   250
100
AcDbVertex
100
AcDb2dVertex
 10
144.836981843131
 20
-160.0612033019986
 30
0.0
  0
SEQEND
  5
AD
330
AA
100
AcDbEntity
  8
EBENE_1
  0
MTEXT
  5
AE
330
1F
100
AcDbEntity
  8
EBENE_1
 62
   250
100
AcDbMText
 10
140.7614338840805
 20
-148.1008653058567
 30
0.0
 40
2.614150283265903
 41
0.0
 71
     7
 72
     1
  1
\fFutura Book|b0|i0|c0|p34;\W1;155
 11
1.192488045480604E-8
 21
-0.9999999999999999
 31
0.0
  0
MTEXT
  5
AF
330
1F
100
AcDbEntity
  8
EBENE_1
 62
   250
100
AcDbMText
 10
146.4672010267513
 20
-149.0517116597857
 30
0.0
 40
2.614150283265903
 41
0.0
 71
     7
 72
     1
  1
\fFutura Book|b0|i0|c0|p34;\W1;180
 11
1.192488045480604E-8
 21
-0.9999999999999999
 31
0.0
  0
MTEXT
  5
B0
330
1F
100
AcDbEntity
  8
EBENE_1
 62
   250
100
AcDbMText
 10
126.4880587791419
 20
-125.7294487532899
 30
0.0
 40
2.614150283265903
 41
0.0
 71
     7
 72
     1
  1
\fFutura Book|b0|i0|c0|p34;\W1;116
 11
1.192488045480604E-8
 21
-0.9999999999999999
 31
0.0
  0
MTEXT
  5
B1
330
1F
100
AcDbEntity
  8
EBENE_1
 62
   250
100
AcDbMText
 10
126.020903831342
 20
-134.0686468848856
 30
0.0
 40
2.614150283265903
 41
0.0
 71
     7
 72
     1
  1
\fFutura Book|b0|i0|c0|p34;\W1;80
 11
1.192488045480604E-8
 21
-0.9999999999999999
 31
0.0
  0
POLYLINE
  5
B2
330
1F
100
AcDbEntity
  8
EBENE_1
 62
   250
100
AcDb2dPolyline
 66
     1
 10
0.0
 20
0.0
 30
0.0
  0
VERTEX
  5
B3
330
B2
100
AcDbEntity
  8
EBENE_1
 62
   250
100
AcDbVertex
100
AcDb2dVertex
 10
121.9663709547515
 20
-129.5405856338475
 30
0.0
  0
VERTEX
  5
B4
330
B2
100
AcDbEntity
  8
EBENE_1
 62
   250
100
AcDbVertex
100
AcDb2dVertex
 10
125.6915527029521
 20
-129.5405856338475
 30
0.0
  0
SEQEND
  5
B5
330
B2
100
AcDbEntity
  8
EBENE_1
  0
POLYLINE
  5
B6
330
1F
100
AcDbEntity
  8
EBENE_1
 62
   250
100
AcDb2dPolyline
 66
     1
 10
0.0
 20
0.0
 30
0.0
  0
VERTEX
  5
B7
330
B6
100
AcDbEntity
  8
EBENE_1
 62
   250
100
AcDbVertex
100
AcDb2dVertex
 10
131.0407524628995
 20
-129.5405856338475
 30
0.0
  0
VERTEX
  5
B8
330
B6
100
AcDbEntity
  8
EBENE_1
 62
   250
100
AcDbVertex
100
AcDb2dVertex
 10
132.8880126620905
 20
-129.5405856338475
 30
0.0
  0
SEQEND
  5
B9
330
B6
100
AcDbEntity
  8
EBENE_1
  0
POLYLINE
  5
BA
330
1F
100
AcDbEntity
  8
EBENE_1
 62
   250
100
AcDb2dPolyline
 66
     1
 10
0.0
 20
0.0
 30
0.0
  0
VERTEX
  5
BB
330
BA
100
AcDbEntity
  8
EBENE_1
 62
   250
100
AcDbVertex
100
AcDb2dVertex
 10
124.2649386625102
 20
-136.7203368798824
 30
0.0
  0
VERTEX
  5
BC
330
BA
100
AcDbEntity
  8
EBENE_1
 62
   250
100
AcDbVertex
100
AcDb2dVertex
 10
126.1673203894651
 20
-136.7203368798824
 30
0.0
  0
SEQEND
  5
BD
330
BA
100
AcDbEntity
  8
EBENE_1
  0
POLYLINE
  5
BE
330
1F
100
AcDbEntity
  8
EBENE_1
 62
   250
100
AcDb2dPolyline
 66
     1
 10
0.0
 20
0.0
 30
0.0
  0
VERTEX
  5
BF
330
BE
100
AcDbEntity
  8
EBENE_1
 62
   250
100
AcDbVertex
100
AcDb2dVertex
 10
129.7333387262472
 20
-136.7203368798824
 30
0.0
  0
VERTEX
  5
C0
330
BE
100
AcDbEntity
  8
EBENE_1
 62
   250
100
AcDbVertex
100
AcDb2dVertex
 10
130.9119058917512
 20
-136.7203368798824
 30
0.0
  0
SEQEND
  5
C1
330
BE
100
AcDbEntity
  8
EBENE_1
  0
POLYLINE
  5
C2
330
1F
100
AcDbEntity
  8
EBENE_1
100
AcDb2dPolyline
 66
     1
 10
0.0
 20
0.0
 30
0.0
  0
VERTEX
  5
C3
330
C2
100
AcDbEntity
  8
EBENE_1
100
AcDbVertex
100
AcDb2dVertex
 10
121.6959309591594
 20
-136.7299831472411
 30
0.0
  0
VERTEX
  5
C4
330
C2
100
AcDbEntity
  8
EBENE_1
100
AcDbVertex
100
AcDb2dVertex
 10
124.9267415052267
 20
-135.3712374878586
 30
0.0
  0
VERTEX
  5
C5
330
C2
100
AcDbEntity
  8
EBENE_1
100
AcDbVertex
100
AcDb2dVertex
 10
124.9267415052267
 20
-138.4074001390093
 30
0.0
  0
VERTEX
  5
C6
330
C2
100
AcDbEntity
  8
EBENE_1
100
AcDbVertex
100
AcDb2dVertex
 10
121.6959309591594
 20
-136.7299831472411
 30
0.0
  0
SEQEND
  5
C7
330
C2
100
AcDbEntity
  8
EBENE_1
  0
INSERT
  5
C8
330
1F
100
AcDbEntity
  8
EBENE_1
 62
   250
100
AcDbBlockReference
  2
*U4
 10
0.0
 20
0.0
 30
0.0
1001
ACAD
1002
{
1000
R14_HATCH_DATA
1000
C8
1011
1.0
1021
0.0
1031
0.0
1011
0.0
1021
1.0
1031
0.0
1011
0.0
1021
0.0
1031
1.0
1040
0.0
1010
0.0
1020
0.0
1030
1.0
1000
SOLID
1070
     1
1070
     1
1071
        1
1071
        1
1071
        3
1070
     1
1040
121.6959309591594
1040
-136.7299831472411
1040
124.9267415052267
1040
-135.3712374878586
1070
     1
1040
124.9267415052267
1040
-135.3712374878586
1040
124.9267415052267
1040
-138.4074001390093
1070
     1
1040
124.9267415052267
1040
-138.4074001390093
1040
121.6959309591594
1040
-136.7299831472411
1071
        0
1070
     2
1070
     1
1071
        0
1002
}
  0
POLYLINE
  5
C9
330
1F
100
AcDbEntity
  8
EBENE_1
100
AcDb2dPolyline
 66
     1
 10
0.0
 20
0.0
 30
0.0
  0
VERTEX
  5
CA
330
C9
100
AcDbEntity
  8
EBENE_1
100
AcDbVertex
100
AcDb2dVertex
 10
119.7346380994066
 20
-129.4193182727667
 30
0.0
  0
VERTEX
  5
CB
330
C9
100
AcDbEntity
  8
EBENE_1
100
AcDbVertex
100
AcDb2dVertex
 10
122.9651041359254
 20
-128.0602281038356
 30
0.0
  0
VERTEX
  5
CC
330
C9
100
AcDbEntity
  8
EBENE_1
100
AcDbVertex
100
AcDb2dVertex
 10
122.9651041359254
 20
-131.0965630097606
 30
0.0
  0
VERTEX
  5
CD
330
C9
100
AcDbEntity
  8
EBENE_1
100
AcDbVertex
100
AcDb2dVertex
 10
119.7346380994066
 20
-129.4193182727667
 30
0.0
  0
SEQEND
  5
CE
330
C9
100
AcDbEntity
  8
EBENE_1
  0
INSERT
  5
CF
330
1F
100
AcDbEntity
  8
EBENE_1
 62
   250
100
AcDbBlockReference
  2
*U5
 10
0.0
 20
0.0
 30
0.0
1001
ACAD
1002
{
1000
R14_HATCH_DATA
1000
CF
1011
1.0
1021
0.0
1031
0.0
1011
0.0
1021
1.0
1031
0.0
1011
0.0
1021
0.0
1031
1.0
1040
0.0
1010
0.0
1020
0.0
1030
1.0
1000
SOLID
1070
     1
1070
     1
1071
        1
1071
        1
1071
        3
1070
     1
1040
119.7346380994066
1040
-129.4193182727667
1040
122.9651041359254
1040
-128.0602281038356
1070
     1
1040
122.9651041359254
1040
-128.0602281038356
1040
122.9651041359254
1040
-131.0965630097606
1070
     1
1040
122.9651041359254
1040
-131.0965630097606
1040
119.7346380994066
1040
-129.4193182727667
1071
        0
1070
     2
1070
     1
1071
        0
1002
}
  0
POLYLINE
  5
D0
330
1F
100
AcDbEntity
  8
EBENE_1
100
AcDb2dPolyline
 66
     1
 10
0.0
 20
0.0
 30
0.0
  0
VERTEX
  5
D1
330
D0
100
AcDbEntity
  8
EBENE_1
100
AcDbVertex
100
AcDb2dVertex
 10
134.1117105784512
 20
-136.9043049787948
 30
0.0
  0
VERTEX
  5
D2
330
D0
100
AcDbEntity
  8
EBENE_1
100
AcDbVertex
100
AcDb2dVertex
 10
130.8812445419325
 20
-135.5445257907666
 30
0.0
  0
VERTEX
  5
D3
330
D0
100
AcDbEntity
  8
EBENE_1
100
AcDbVertex
100
AcDb2dVertex
 10
130.8812445419325
 20
-138.5813774610144
 30
0.0
  0
VERTEX
  5
D4
330
D0
100
AcDbEntity
  8
EBENE_1
100
AcDbVertex
100
AcDb2dVertex
 10
134.1117105784512
 20
-136.9043049787948
 30
0.0
  0
SEQEND
  5
D5
330
D0
100
AcDbEntity
  8
EBENE_1
  0
INSERT
  5
D6
330
1F
100
AcDbEntity
  8
EBENE_1
 62
   250
100
AcDbBlockReference
  2
*U6
 10
0.0
 20
0.0
 30
0.0
1001
ACAD
1002
{
1000
R14_HATCH_DATA
1000
D6
1011
1.0
1021
0.0
1031
0.0
1011
0.0
1021
1.0
1031
0.0
1011
0.0
1021
0.0
1031
1.0
1040
0.0
1010
0.0
1020
0.0
1030
1.0
1000
SOLID
1070
     1
1070
     1
1071
        1
1071
        1
1071
        3
1070
     1
1040
134.1117105784512
1040
-136.9043049787948
1040
130.8812445419325
1040
-135.5445257907666
1070
     1
1040
130.8812445419325
1040
-135.5445257907666
1040
130.8812445419325
1040
-138.5813774610144
1070
     1
1040
130.8812445419325
1040
-138.5813774610144
1040
134.1117105784512
1040
-136.9043049787948
1071
        0
1070
     2
1070
     1
1071
        0
1002
}
  0
POLYLINE
  5
D7
330
1F
100
AcDbEntity
  8
EBENE_1
100
AcDb2dPolyline
 66
     1
 10
0.0
 20
0.0
 30
0.0
  0
VERTEX
  5
D8
330
D7
100
AcDbEntity
  8
EBENE_1
100
AcDbVertex
100
AcDb2dVertex
 10
135.8056640285486
 20
-129.4596258899441
 30
0.0
  0
VERTEX
  5
D9
330
D7
100
AcDbEntity
  8
EBENE_1
100
AcDbVertex
100
AcDb2dVertex
 10
132.5751979920298
 20
-128.1001912114645
 30
0.0
  0
VERTEX
  5
DA
330
D7
100
AcDbEntity
  8
EBENE_1
100
AcDbVertex
100
AcDb2dVertex
 10
132.5751979920298
 20
-131.136870626938
 30
0.0
  0
VERTEX
  5
DB
330
D7
100
AcDbEntity
  8
EBENE_1
100
AcDbVertex
100
AcDb2dVertex
 10
135.8056640285486
 20
-129.4596258899441
 30
0.0
  0
SEQEND
  5
DC
330
D7
100
AcDbEntity
  8
EBENE_1
  0
INSERT
  5
DD
330
1F
100
AcDbEntity
  8
EBENE_1
 62
   250
100
AcDbBlockReference
  2
*U7
 10
0.0
 20
0.0
 30
0.0
1001
ACAD
1002
{
1000
R14_HATCH_DATA
1000
DD
1011
1.0
1021
0.0
1031
0.0
1011
0.0
1021
1.0
1031
0.0
1011
0.0
1021
0.0
1031
1.0
1040
0.0
1010
0.0
1020
0.0
1030
1.0
1000
SOLID
1070
     1
1070
     1
1071
        1
1071
        1
1071
        3
1070
     1
1040
135.8056640285486
1040
-129.4596258899441
1040
132.5751979920298
1040
-128.1001912114645
1070
     1
1040
132.5751979920298
1040
-128.1001912114645
1040
132.5751979920298
1040
-131.136870626938
1070
     1
1040
132.5751979920298
1040
-131.136870626938
1040
135.8056640285486
1040
-129.4596258899441
1071
        0
1070
     2
1070
     1
1071
        0
1002
}
  0
POLYLINE
  5
DE
330
1F
100
AcDbEntity
  8
EBENE_1
100
AcDb2dPolyline
 66
     1
 10
0.0
 20
0.0
 30
0.0
  0
VERTEX
  5
DF
330
DE
100
AcDbEntity
  8
EBENE_1
100
AcDbVertex
100
AcDb2dVertex
 10
142.3127603810885
 20
-159.8321044522295
 30
0.0
  0
VERTEX
  5
E0
330
DE
100
AcDbEntity
  8
EBENE_1
100
AcDbVertex
100
AcDb2dVertex
 10
141.0222276123139
 20
-156.7642469226145
 30
0.0
  0
VERTEX
  5
E1
330
DE
100
AcDbEntity
  8
EBENE_1
100
AcDbVertex
100
AcDb2dVertex
 10
143.905083514371
 20
-156.7642469226145
 30
0.0
  0
VERTEX
  5
E2
330
DE
100
AcDbEntity
  8
EBENE_1
100
AcDbVertex
100
AcDb2dVertex
 10
142.3127603810885
 20
-159.8321044522295
 30
0.0
  0
SEQEND
  5
E3
330
DE
100
AcDbEntity
  8
EBENE_1
  0
INSERT
  5
E4
330
1F
100
AcDbEntity
  8
EBENE_1
 62
   250
100
AcDbBlockReference
  2
*U8
 10
0.0
 20
0.0
 30
0.0
1001
ACAD
1002
{
1000
R14_HATCH_DATA
1000
E4
1011
1.0
1021
0.0
1031
0.0
1011
0.0
1021
1.0
1031
0.0
1011
0.0
1021
0.0
1031
1.0
1040
0.0
1010
0.0
1020
0.0
1030
1.0
1000
SOLID
1070
     1
1070
     1
1071
        1
1071
        1
1071
        3
1070
     1
1040
142.3127603810885
1040
-159.8321044522295
1040
141.0222276123139
1040
-156.7642469226145
1070
     1
1040
141.0222276123139
1040
-156.7642469226145
1040
143.905083514371
1040
-156.7642469226145
1070
     1
1040
143.905083514371
1040
-156.7642469226145
1040
142.3127603810885
1040
-159.8321044522295
1071
        0
1070
     2
1070
     1
1071
        0
1002
}
  0
POLYLINE
  5
E5
330
1F
100
AcDbEntity
  8
EBENE_1
100
AcDb2dPolyline
 66
     1
 10
0.0
 20
0.0
 30
0.0
  0
VERTEX
  5
E6
330
E5
100
AcDbEntity
  8
EBENE_1
100
AcDbVertex
100
AcDb2dVertex
 10
148.1225694074138
 20
-162.4324625244961
 30
0.0
  0
VERTEX
  5
E7
330
E5
100
AcDbEntity
  8
EBENE_1
100
AcDbVertex
100
AcDb2dVertex
 10
146.8323811481877
 20
-159.3646049948811
 30
0.0
  0
VERTEX
  5
E8
330
E5
100
AcDbEntity
  8
EBENE_1
100
AcDbVertex
100
AcDb2dVertex
 10
149.7148925406963
 20
-159.3646049948811
 30
0.0
  0
VERTEX
  5
E9
330
E5
100
AcDbEntity
  8
EBENE_1
100
AcDbVertex
100
AcDb2dVertex
 10
148.1225694074138
 20
-162.4324625244961
 30
0.0
  0
SEQEND
  5
EA
330
E5
100
AcDbEntity
  8
EBENE_1
  0
INSERT
  5
EB
330
1F
100
AcDbEntity
  8
EBENE_1
 62
   250
100
AcDbBlockReference
  2
*U9
 10
0.0
 20
0.0
 30
0.0
1001
ACAD
1002
{
1000
R14_HATCH_DATA
1000
EB
1011
1.0
1021
0.0
1031
0.0
1011
0.0
1021
1.0
1031
0.0
1011
0.0
1021
0.0
1031
1.0
1040
0.0
1010
0.0
1020
0.0
1030
1.0
1000
SOLID
1070
     1
1070
     1
1071
        1
1071
        1
1071
        3
1070
     1
1040
148.1225694074138
1040
-162.4324625244961
1040
146.8323811481877
1040
-159.3646049948811
1070
     1
1040
146.8323811481877
1040
-159.3646049948811
1040
149.7148925406963
1040
-159.3646049948811
1070
     1
1040
149.7148925406963
1040
-159.3646049948811
1040
148.1225694074138
1040
-162.4324625244961
1071
        0
1070
     2
1070
     1
1071
        0
1002
}
  0
POLYLINE
  5
EC
330
1F
100
AcDbEntity
  8
EBENE_1
100
AcDb2dPolyline
 66
     1
 10
0.0
 20
0.0
 30
0.0
  0
VERTEX
  5
ED
330
EC
100
AcDbEntity
  8
EBENE_1
100
AcDbVertex
100
AcDb2dVertex
 10
142.1808132240034
 20
-143.8041422166531
 30
0.0
  0
VERTEX
  5
EE
330
EC
100
AcDbEntity
  8
EBENE_1
100
AcDbVertex
100
AcDb2dVertex
 10
140.8899359456803
 20
-146.8714829819453
 30
0.0
  0
VERTEX
  5
EF
330
EC
100
AcDbEntity
  8
EBENE_1
100
AcDbVertex
100
AcDb2dVertex
 10
143.7734808668344
 20
-146.8714829819453
 30
0.0
  0
VERTEX
  5
F0
330
EC
100
AcDbEntity
  8
EBENE_1
100
AcDbVertex
100
AcDb2dVertex
 10
142.1808132240034
 20
-143.8041422166531
 30
0.0
  0
SEQEND
  5
F1
330
EC
100
AcDbEntity
  8
EBENE_1
  0
INSERT
  5
F2
330
1F
100
AcDbEntity
  8
EBENE_1
 62
   250
100
AcDbBlockReference
  2
*U10
 10
0.0
 20
0.0
 30
0.0
1001
ACAD
1002
{
1000
R14_HATCH_DATA
1000
F2
1011
1.0
1021
0.0
1031
0.0
1011
0.0
1021
1.0
1031
0.0
1011
0.0
1021
0.0
1031
1.0
1040
0.0
1010
0.0
1020
0.0
1030
1.0
1000
SOLID
1070
     1
1070
     1
1071
        1
1071
        1
1071
        3
1070
     1
1040
142.1808132240034
1040
-143.8041422166531
1040
140.8899359456803
1040
-146.8714829819453
1070
     1
1040
140.8899359456803
1040
-146.8714829819453
1040
143.7734808668344
1040
-146.8714829819453
1070
     1
1040
143.7734808668344
1040
-146.8714829819453
1040
142.1808132240034
1040
-143.8041422166531
1071
        0
1070
     2
1070
     1
1071
        0
1002
}
  0
POLYLINE
  5
F3
330
1F
100
AcDbEntity
  8
EBENE_1
100
AcDb2dPolyline
 66
     1
 10
0.0
 20
0.0
 30
0.0
  0
VERTEX
  5
F4
330
F3
100
AcDbEntity
  8
EBENE_1
100
AcDbVertex
100
AcDb2dVertex
 10
148.1835475975027
 20
-143.7888115417438
 30
0.0
  0
VERTEX
  5
F5
330
F3
100
AcDbEntity
  8
EBENE_1
100
AcDbVertex
100
AcDb2dVertex
 10
146.8926703191796
 20
-146.856841326133
 30
0.0
  0
VERTEX
  5
F6
330
F3
100
AcDbEntity
  8
EBENE_1
100
AcDbVertex
100
AcDb2dVertex
 10
149.7758707307852
 20
-146.856841326133
 30
0.0
  0
VERTEX
  5
F7
330
F3
100
AcDbEntity
  8
EBENE_1
100
AcDbVertex
100
AcDb2dVertex
 10
148.1835475975027
 20
-143.7888115417438
 30
0.0
  0
SEQEND
  5
F8
330
F3
100
AcDbEntity
  8
EBENE_1
  0
INSERT
  5
F9
330
1F
100
AcDbEntity
  8
EBENE_1
 62
   250
100
AcDbBlockReference
  2
*U11
 10
0.0
 20
0.0
 30
0.0
1001
ACAD
1002
{
1000
R14_HATCH_DATA
1000
F9
1011
1.0
1021
0.0
1031
0.0
1011
0.0
1021
1.0
1031
0.0
1011
0.0
1021
0.0
1031
1.0
1040
0.0
1010
0.0
1020
0.0
1030
1.0
1000
SOLID
1070
     1
1070
     1
1071
        1
1071
        1
1071
        3
1070
     1
1040
148.1835475975027
1040
-143.7888115417438
1040
146.8926703191796
1040
-146.856841326133
1070
     1
1040
146.8926703191796
1040
-146.856841326133
1040
149.7758707307852
1040
-146.856841326133
1070
     1
1040
149.7758707307852
1040
-146.856841326133
1040
148.1835475975027
1040
-143.7888115417438
1071
        0
1070
     2
1070
     1
1071
        0
1002
}
  0
POLYLINE
  5
FA
330
1F
100
AcDbEntity
  8
EBENE_1
 62
   250
100
AcDb2dPolyline
 66
     1
 10
0.0
 20
0.0
 30
0.0
  0
VERTEX
  5
FB
330
FA
100
AcDbEntity
  8
EBENE_1
 62
   250
100
AcDbVertex
100
AcDb2dVertex
 10
56.70282659172707
 20
-134.0948296105735
 30
0.0
  0
VERTEX
  5
FC
330
FA
100
AcDbEntity
  8
EBENE_1
 62
   250
100
AcDbVertex
100
AcDb2dVertex
 10
67.21966957954925
 20
-134.0948296105735
 30
0.0
  0
SEQEND
  5
FD
330
FA
100
AcDbEntity
  8
EBENE_1
  0
POLYLINE
  5
FE
330
1F
100
AcDbEntity
  8
EBENE_1
 62
   250
100
AcDb2dPolyline
 66
     1
 10
0.0
 20
0.0
 30
0.0
  0
VERTEX
  5
FF
330
FE
100
AcDbEntity
  8
EBENE_1
 62
   250
100
AcDbVertex
100
AcDb2dVertex
 10
78.27515324649025
 20
-134.0948296105735
 30
0.0
  0
VERTEX
  5
100
330
FE
100
AcDbEntity
  8
EBENE_1
 62
   250
100
AcDbVertex
100
AcDb2dVertex
 10
88.53154701562754
 20
-134.0948296105735
 30
0.0
  0
SEQEND
  5
101
330
FE
100
AcDbEntity
  8
EBENE_1
  0
POLYLINE
  5
102
330
1F
100
AcDbEntity
  8
EBENE_1
 62
   250
100
AcDb2dPolyline
 66
     1
 10
0.0
 20
0.0
 30
0.0
  0
VERTEX
  5
103
330
102
100
AcDbEntity
  8
EBENE_1
 62
   250
100
AcDbVertex
100
AcDb2dVertex
 10
90.8697333214666
 20
-144.4240871492239
 30
0.0
  0
VERTEX
  5
104
330
102
100
AcDbEntity
  8
EBENE_1
 62
   250
100
AcDbVertex
100
AcDb2dVertex
 10
90.8697333214666
 20
-131.4155788516947
 30
0.0
  0
SEQEND
  5
105
330
102
100
AcDbEntity
  8
EBENE_1
  0
POLYLINE
  5
106
330
1F
100
AcDbEntity
  8
EBENE_1
 62
   250
100
AcDb2dPolyline
 66
     1
 10
0.0
 20
0.0
 30
0.0
  0
VERTEX
  5
107
330
106
100
AcDbEntity
  8
EBENE_1
 62
   250
100
AcDbVertex
100
AcDb2dVertex
 10
54.22442489963834
 20
-144.2444254196681
 30
0.0
  0
VERTEX
  5
108
330
106
100
AcDbEntity
  8
EBENE_1
 62
   250
100
AcDbVertex
100
AcDb2dVertex
 10
54.22442489963834
 20
-131.4155788516947
 30
0.0
  0
SEQEND
  5
109
330
106
100
AcDbEntity
  8
EBENE_1
  0
POLYLINE
  5
10A
330
1F
100
AcDbEntity
  8
EBENE_1
 62
   250
100
AcDb2dPolyline
 66
     1
 10
0.0
 20
0.0
 30
0.0
  0
VERTEX
  5
10B
330
10A
100
AcDbEntity
  8
EBENE_1
 62
   250
100
AcDbVertex
100
AcDb2dVertex
 10
55.93078069348258
 20
-138.7810207443846
 30
0.0
  0
VERTEX
  5
10C
330
10A
100
AcDbEntity
  8
EBENE_1
 62
   250
100
AcDbVertex
100
AcDb2dVertex
 10
55.93078069348258
 20
-144.1965385924231
 30
0.0
  0
SEQEND
  5
10D
330
10A
100
AcDbEntity
  8
EBENE_1
  0
POLYLINE
  5
10E
330
1F
100
AcDbEntity
  8
EBENE_1
 62
   250
100
AcDb2dPolyline
 66
     1
 10
0.0
 20
0.0
 30
0.0
  0
VERTEX
  5
10F
330
10E
100
AcDbEntity
  8
EBENE_1
 62
   250
100
AcDbVertex
100
AcDb2dVertex
 10
89.25312226501312
 20
-139.0485324088143
 30
0.0
  0
VERTEX
  5
110
330
10E
100
AcDbEntity
  8
EBENE_1
 62
   250
100
AcDbVertex
100
AcDb2dVertex
 10
89.25312226501312
 20
-144.4640502568527
 30
0.0
  0
SEQEND
  5
111
330
10E
100
AcDbEntity
  8
EBENE_1
  0
POLYLINE
  5
112
330
1F
100
AcDbEntity
  8
EBENE_1
 62
   250
100
AcDb2dPolyline
 66
     1
 10
0.0
 20
0.0
 30
0.0
  0
VERTEX
  5
113
330
112
100
AcDbEntity
  8
EBENE_1
 62
   250
100
AcDbVertex
100
AcDb2dVertex
 10
58.48583576011813
 20
-141.8189059432779
 30
0.0
  0
VERTEX
  5
114
330
112
100
AcDbEntity
  8
EBENE_1
 62
   250
100
AcDbVertex
100
AcDb2dVertex
 10
66.86310219682589
 20
-141.8189059432779
 30
0.0
  0
SEQEND
  5
115
330
112
100
AcDbEntity
  8
EBENE_1
  0
POLYLINE
  5
116
330
1F
100
AcDbEntity
  8
EBENE_1
 62
   250
100
AcDb2dPolyline
 66
     1
 10
0.0
 20
0.0
 30
0.0
  0
VERTEX
  5
117
330
116
100
AcDbEntity
  8
EBENE_1
 62
   250
100
AcDbVertex
100
AcDb2dVertex
 10
77.91841360899262
 20
-141.8189059432779
 30
0.0
  0
VERTEX
  5
118
330
116
100
AcDbEntity
  8
EBENE_1
 62
   250
100
AcDbVertex
100
AcDb2dVertex
 10
87.0157050021176
 20
-141.8189059432779
 30
0.0
  0
SEQEND
  5
119
330
116
100
AcDbEntity
  8
EBENE_1
  0
POLYLINE
  5
11A
330
1F
100
AcDbEntity
  8
EBENE_1
100
AcDb2dPolyline
 66
     1
 10
0.0
 20
0.0
 30
0.0
  0
VERTEX
  5
11B
330
11A
100
AcDbEntity
  8
EBENE_1
100
AcDbVertex
100
AcDb2dVertex
 10
56.50008272242012
 20
-141.7565497149949
 30
0.0
  0
VERTEX
  5
11C
330
11A
100
AcDbEntity
  8
EBENE_1
100
AcDbVertex
100
AcDb2dVertex
 10
59.73054875893889
 20
-140.3972872912896
 30
0.0
  0
VERTEX
  5
11D
330
11A
100
AcDbEntity
  8
EBENE_1
100
AcDbVertex
100
AcDb2dVertex
 10
59.73054875893889
 20
-143.4336221972145
 30
0.0
  0
VERTEX
  5
11E
330
11A
100
AcDbEntity
  8
EBENE_1
100
AcDbVertex
100
AcDb2dVertex
 10
56.50008272242012
 20
-141.7565497149949
 30
0.0
  0
SEQEND
  5
11F
330
11A
100
AcDbEntity
  8
EBENE_1
  0
INSERT
  5
120
330
1F
100
AcDbEntity
  8
EBENE_1
 62
   250
100
AcDbBlockReference
  2
*U12
 10
0.0
 20
0.0
 30
0.0
1001
ACAD
1002
{
1000
R14_HATCH_DATA
1000
120
1011
1.0
1021
0.0
1031
0.0
1011
0.0
1021
1.0
1031
0.0
1011
0.0
1021
0.0
1031
1.0
1040
0.0
1010
0.0
1020
0.0
1030
1.0
1000
SOLID
1070
     1
1070
     1
1071
        1
1071
        1
1071
        3
1070
     1
1040
56.50008272242012
1040
-141.7565497149949
1040
59.73054875893889
1040
-140.3972872912896
1070
     1
1040
59.73054875893889
1040
-140.3972872912896
1040
59.73054875893889
1040
-143.4336221972145
1070
     1
1040
59.73054875893889
1040
-143.4336221972145
1040
56.50008272242012
1040
-141.7565497149949
1071
        0
1070
     2
1070
     1
1071
        0
1002
}
  0
POLYLINE
  5
121
330
1F
100
AcDbEntity
  8
EBENE_1
100
AcDb2dPolyline
 66
     1
 10
0.0
 20
0.0
 30
0.0
  0
VERTEX
  5
122
330
121
100
AcDbEntity
  8
EBENE_1
100
AcDbVertex
100
AcDb2dVertex
 10
54.36033391653145
 20
-133.5541218741636
 30
0.0
  0
VERTEX
  5
123
330
121
100
AcDbEntity
  8
EBENE_1
100
AcDbVertex
100
AcDb2dVertex
 10
57.59079995305022
 20
-132.1950317052325
 30
0.0
  0
VERTEX
  5
124
330
121
100
AcDbEntity
  8
EBENE_1
100
AcDbVertex
100
AcDb2dVertex
 10
57.59079995305022
 20
-135.2311943563832
 30
0.0
  0
VERTEX
  5
125
330
121
100
AcDbEntity
  8
EBENE_1
100
AcDbVertex
100
AcDb2dVertex
 10
54.36033391653145
 20
-133.5541218741636
 30
0.0
  0
SEQEND
  5
126
330
121
100
AcDbEntity
  8
EBENE_1
  0
INSERT
  5
127
330
1F
100
AcDbEntity
  8
EBENE_1
 62
   250
100
AcDbBlockReference
  2
*U13
 10
0.0
 20
0.0
 30
0.0
1001
ACAD
1002
{
1000
R14_HATCH_DATA
1000
127
1011
1.0
1021
0.0
1031
0.0
1011
0.0
1021
1.0
1031
0.0
1011
0.0
1021
0.0
1031
1.0
1040
0.0
1010
0.0
1020
0.0
1030
1.0
1000
SOLID
1070
     1
1070
     1
1071
        1
1071
        1
1071
        3
1070
     1
1040
54.36033391653145
1040
-133.5541218741636
1040
57.59079995305022
1040
-132.1950317052325
1070
     1
1040
57.59079995305022
1040
-132.1950317052325
1040
57.59079995305022
1040
-135.2311943563832
1070
     1
1040
57.59079995305022
1040
-135.2311943563832
1040
54.36033391653145
1040
-133.5541218741636
1071
        0
1070
     2
1070
     1
1071
        0
1002
}
  0
MTEXT
  5
128
330
1F
100
AcDbEntity
  8
EBENE_1
 62
   250
100
AcDbMText
 10
69.62486299257642
 20
-135.6003363376277
 30
0.0
 40
2.614150283265903
 41
0.0
 71
     7
 72
     1
  1
\fFutura Book|b0|i0|c0|p34;\W1;336
  0
MTEXT
  5
129
330
1F
100
AcDbEntity
  8
EBENE_1
 62
   250
100
AcDbMText
 10
68.66230331399763
 20
-143.4616997254193
 30
0.0
 40
2.614150283265903
 41
0.0
 71
     7
 72
     1
  1
\fFutura Book|b0|i0|c0|p34;\W1;300
  0
POLYLINE
  5
12A
330
1F
100
AcDbEntity
  8
EBENE_1
100
AcDb2dPolyline
 66
     1
 10
0.0
 20
0.0
 30
0.0
  0
VERTEX
  5
12B
330
12A
100
AcDbEntity
  8
EBENE_1
100
AcDbVertex
100
AcDb2dVertex
 10
90.77774927201042
 20
-133.5541218741636
 30
0.0
  0
VERTEX
  5
12C
330
12A
100
AcDbEntity
  8
EBENE_1
100
AcDbVertex
100
AcDb2dVertex
 10
87.54711098071739
 20
-132.1950317052325
 30
0.0
  0
VERTEX
  5
12D
330
12A
100
AcDbEntity
  8
EBENE_1
100
AcDbVertex
100
AcDb2dVertex
 10
87.54711098071739
 20
-135.2311943563832
 30
0.0
  0
VERTEX
  5
12E
330
12A
100
AcDbEntity
  8
EBENE_1
100
AcDbVertex
100
AcDb2dVertex
 10
90.77774927201042
 20
-133.5541218741636
 30
0.0
  0
SEQEND
  5
12F
330
12A
100
AcDbEntity
  8
EBENE_1
  0
INSERT
  5
130
330
1F
100
AcDbEntity
  8
EBENE_1
 62
   250
100
AcDbBlockReference
  2
*U14
 10
0.0
 20
0.0
 30
0.0
1001
ACAD
1002
{
1000
R14_HATCH_DATA
1000
130
1011
1.0
1021
0.0
1031
0.0
1011
0.0
1021
1.0
1031
0.0
1011
0.0
1021
0.0
1031
1.0
1040
0.0
1010
0.0
1020
0.0
1030
1.0
1000
SOLID
1070
     1
1070
     1
1071
        1
1071
        1
1071
        3
1070
     1
1040
90.77774927201042
1040
-133.5541218741636
1040
87.54711098071739
1040
-132.1950317052325
1070
     1
1040
87.54711098071739
1040
-132.1950317052325
1040
87.54711098071739
1040
-135.2311943563832
1070
     1
1040
87.54711098071739
1040
-135.2311943563832
1040
90.77774927201042
1040
-133.5541218741636
1071
        0
1070
     2
1070
     1
1071
        0
1002
}
  0
POLYLINE
  5
131
330
1F
100
AcDbEntity
  8
EBENE_1
100
AcDb2dPolyline
 66
     1
 10
0.0
 20
0.0
 30
0.0
  0
VERTEX
  5
132
330
131
100
AcDbEntity
  8
EBENE_1
100
AcDbVertex
100
AcDb2dVertex
 10
88.63800046612175
 20
-141.3999823322715
 30
0.0
  0
VERTEX
  5
133
330
131
100
AcDbEntity
  8
EBENE_1
100
AcDbVertex
100
AcDb2dVertex
 10
85.40736217482872
 20
-140.0405476537919
 30
0.0
  0
VERTEX
  5
134
330
131
100
AcDbEntity
  8
EBENE_1
100
AcDbVertex
100
AcDb2dVertex
 10
85.40736217482872
 20
-143.0768825597169
 30
0.0
  0
VERTEX
  5
135
330
131
100
AcDbEntity
  8
EBENE_1
100
AcDbVertex
100
AcDb2dVertex
 10
88.63800046612175
 20
-141.3999823322715
 30
0.0
  0
SEQEND
  5
136
330
131
100
AcDbEntity
  8
EBENE_1
  0
INSERT
  5
137
330
1F
100
AcDbEntity
  8
EBENE_1
 62
   250
100
AcDbBlockReference
  2
*U15
 10
0.0
 20
0.0
 30
0.0
1001
ACAD
1002
{
1000
R14_HATCH_DATA
1000
137
1011
1.0
1021
0.0
1031
0.0
1011
0.0
1021
1.0
1031
0.0
1011
0.0
1021
0.0
1031
1.0
1040
0.0
1010
0.0
1020
0.0
1030
1.0
1000
SOLID
1070
     1
1070
     1
1071
        1
1071
        1
1071
        3
1070
     1
1040
88.63800046612175
1040
-141.3999823322715
1040
85.40736217482872
1040
-140.0405476537919
1070
     1
1040
85.40736217482872
1040
-140.0405476537919
1040
85.40736217482872
1040
-143.0768825597169
1070
     1
1040
85.40736217482872
1040
-143.0768825597169
1040
88.63800046612175
1040
-141.3999823322715
1071
        0
1070
     2
1070
     1
1071
        0
1002
}
  0
MTEXT
  5
138
330
1F
100
AcDbEntity
  8
EBENE_1
 62
   250
100
AcDbMText
 10
102.6388685181771
 20
-160.7474663226604
 30
0.0
 40
2.614150283265903
 41
0.0
 71
     7
 72
     1
  1
\fFutura Book|b0|i0|c0|p34;\W1;116
  0
POLYLINE
  5
139
330
1F
100
AcDbEntity
  8
EBENE_1
 62
   250
100
AcDb2dPolyline
 66
     1
 10
0.0
 20
0.0
 30
0.0
  0
VERTEX
  5
13A
330
139
100
AcDbEntity
  8
EBENE_1
 62
   250
100
AcDbVertex
100
AcDb2dVertex
 10
106.5592149256171
 20
-165.3235866557177
 30
0.0
  0
VERTEX
  5
13B
330
139
100
AcDbEntity
  8
EBENE_1
 62
   250
100
AcDbVertex
100
AcDb2dVertex
 10
106.5592149256171
 20
-161.5984049075171
 30
0.0
  0
SEQEND
  5
13C
330
139
100
AcDbEntity
  8
EBENE_1
  0
POLYLINE
  5
13D
330
1F
100
AcDbEntity
  8
EBENE_1
 62
   250
100
AcDb2dPolyline
 66
     1
 10
0.0
 20
0.0
 30
0.0
  0
VERTEX
  5
13E
330
13D
100
AcDbEntity
  8
EBENE_1
 62
   250
100
AcDbVertex
100
AcDb2dVertex
 10
106.5592149256171
 20
-156.2488606380211
 30
0.0
  0
VERTEX
  5
13F
330
13D
100
AcDbEntity
  8
EBENE_1
 62
   250
100
AcDbVertex
100
AcDb2dVertex
 10
106.5592149256171
 20
-154.4026339674757
 30
0.0
  0
SEQEND
  5
140
330
13D
100
AcDbEntity
  8
EBENE_1
  0
POLYLINE
  5
141
330
1F
100
AcDbEntity
  8
EBENE_1
100
AcDb2dPolyline
 66
     1
 10
0.0
 20
0.0
 30
0.0
  0
VERTEX
  5
142
330
141
100
AcDbEntity
  8
EBENE_1
100
AcDbVertex
100
AcDb2dVertex
 10
106.4379475645363
 20
-167.5556640206111
 30
0.0
  0
VERTEX
  5
143
330
141
100
AcDbEntity
  8
EBENE_1
100
AcDbVertex
100
AcDb2dVertex
 10
105.0783406312825
 20
-164.3251979840923
 30
0.0
  0
VERTEX
  5
144
330
141
100
AcDbEntity
  8
EBENE_1
100
AcDbVertex
100
AcDb2dVertex
 10
108.115020046756
 20
-164.3251979840923
 30
0.0
  0
VERTEX
  5
145
330
141
100
AcDbEntity
  8
EBENE_1
100
AcDbVertex
100
AcDb2dVertex
 10
106.4379475645363
 20
-167.5556640206111
 30
0.0
  0
SEQEND
  5
146
330
141
100
AcDbEntity
  8
EBENE_1
  0
INSERT
  5
147
330
1F
100
AcDbEntity
  8
EBENE_1
 62
   250
100
AcDbBlockReference
  2
*U16
 10
0.0
 20
0.0
 30
0.0
1001
ACAD
1002
{
1000
R14_HATCH_DATA
1000
147
1011
1.0
1021
0.0
1031
0.0
1011
0.0
1021
1.0
1031
0.0
1011
0.0
1021
0.0
1031
1.0
1040
0.0
1010
0.0
1020
0.0
1030
1.0
1000
SOLID
1070
     1
1070
     1
1071
        1
1071
        1
1071
        3
1070
     1
1040
106.4379475645363
1040
-167.5556640206111
1040
105.0783406312825
1040
-164.3251979840923
1070
     1
1040
105.0783406312825
1040
-164.3251979840923
1040
108.115020046756
1040
-164.3251979840923
1070
     1
1040
108.115020046756
1040
-164.3251979840923
1040
106.4379475645363
1040
-167.5556640206111
1071
        0
1070
     2
1070
     1
1071
        0
1002
}
  0
POLYLINE
  5
148
330
1F
100
AcDbEntity
  8
EBENE_1
100
AcDb2dPolyline
 66
     1
 10
0.0
 20
0.0
 30
0.0
  0
VERTEX
  5
149
330
148
100
AcDbEntity
  8
EBENE_1
100
AcDbVertex
100
AcDb2dVertex
 10
106.4782551817138
 20
-151.4839490723721
 30
0.0
  0
VERTEX
  5
14A
330
148
100
AcDbEntity
  8
EBENE_1
100
AcDbVertex
100
AcDb2dVertex
 10
105.1186482484599
 20
-154.7147596184394
 30
0.0
  0
VERTEX
  5
14B
330
148
100
AcDbEntity
  8
EBENE_1
100
AcDbVertex
100
AcDb2dVertex
 10
108.1546386448363
 20
-154.7147596184394
 30
0.0
  0
VERTEX
  5
14C
330
148
100
AcDbEntity
  8
EBENE_1
100
AcDbVertex
100
AcDb2dVertex
 10
106.4782551817138
 20
-151.4839490723721
 30
0.0
  0
SEQEND
  5
14D
330
148
100
AcDbEntity
  8
EBENE_1
  0
INSERT
  5
14E
330
1F
100
AcDbEntity
  8
EBENE_1
 62
   250
100
AcDbBlockReference
  2
*U17
 10
0.0
 20
0.0
 30
0.0
1001
ACAD
1002
{
1000
R14_HATCH_DATA
1000
14E
1011
1.0
1021
0.0
1031
0.0
1011
0.0
1021
1.0
1031
0.0
1011
0.0
1021
0.0
1031
1.0
1040
0.0
1010
0.0
1020
0.0
1030
1.0
1000
SOLID
1070
     1
1070
     1
1071
        1
1071
        1
1071
        3
1070
     1
1040
106.4782551817138
1040
-151.4839490723721
1040
105.1186482484599
1040
-154.7147596184394
1070
     1
1040
105.1186482484599
1040
-154.7147596184394
1040
108.1546386448363
1040
-154.7147596184394
1070
     1
1040
108.1546386448363
1040
-154.7147596184394
1040
106.4782551817138
1040
-151.4839490723721
1071
        0
1070
     2
1070
     1
1071
        0
1002
}
  0
MTEXT
  5
14F
330
1F
100
AcDbEntity
  8
EBENE_1
 62
   250
100
AcDbMText
 10
96.45319957441102
 20
-161.2697427982242
 30
0.0
 40
2.614150283265903
 41
0.0
 71
     7
 72
     1
  1
\fFutura Book|b0|i0|c0|p34;\W1;80
  0
POLYLINE
  5
150
330
1F
100
AcDbEntity
  8
EBENE_1
 62
   250
100
AcDb2dPolyline
 66
     1
 10
0.0
 20
0.0
 30
0.0
  0
VERTEX
  5
151
330
150
100
AcDbEntity
  8
EBENE_1
 62
   250
100
AcDbVertex
100
AcDb2dVertex
 10
102.4628241388808
 20
-153.1444850962625
 30
0.0
  0
VERTEX
  5
152
330
150
100
AcDbEntity
  8
EBENE_1
 62
   250
100
AcDbVertex
100
AcDb2dVertex
 10
93.48094344451171
 20
-153.1444850962625
 30
0.0
  0
SEQEND
  5
153
330
150
100
AcDbEntity
  8
EBENE_1
  0
POLYLINE
  5
154
330
1F
100
AcDbEntity
  8
EBENE_1
 62
   250
100
AcDb2dPolyline
 66
     1
 10
0.0
 20
0.0
 30
0.0
  0
VERTEX
  5
155
330
154
100
AcDbEntity
  8
EBENE_1
 62
   250
100
AcDbVertex
100
AcDb2dVertex
 10
102.6424858684366
 20
-165.8090006095894
 30
0.0
  0
VERTEX
  5
156
330
154
100
AcDbEntity
  8
EBENE_1
 62
   250
100
AcDbVertex
100
AcDb2dVertex
 10
93.6606051740675
 20
-165.8090006095894
 30
0.0
  0
SEQEND
  5
157
330
154
100
AcDbEntity
  8
EBENE_1
  0
POLYLINE
  5
158
330
1F
100
AcDbEntity
  8
EBENE_1
 62
   250
100
AcDb2dPolyline
 66
     1
 10
0.0
 20
0.0
 30
0.0
  0
VERTEX
  5
159
330
158
100
AcDbEntity
  8
EBENE_1
 62
   250
100
AcDbVertex
100
AcDb2dVertex
 10
98.93883596701876
 20
-157.5562743746734
 30
0.0
  0
VERTEX
  5
15A
330
158
100
AcDbEntity
  8
EBENE_1
 62
   250
100
AcDbVertex
100
AcDb2dVertex
 10
98.93883596701876
 20
-156.378051718718
 30
0.0
  0
SEQEND
  5
15B
330
158
100
AcDbEntity
  8
EBENE_1
  0
POLYLINE
  5
15C
330
1F
100
AcDbEntity
  8
EBENE_1
100
AcDb2dPolyline
 66
     1
 10
0.0
 20
0.0
 30
0.0
  0
VERTEX
  5
15D
330
15C
100
AcDbEntity
  8
EBENE_1
100
AcDbVertex
100
AcDb2dVertex
 10
98.94865448915174
 20
-165.5943711608584
 30
0.0
  0
VERTEX
  5
15E
330
15C
100
AcDbEntity
  8
EBENE_1
100
AcDbVertex
100
AcDb2dVertex
 10
97.58921981067215
 20
-162.3639051243396
 30
0.0
  0
VERTEX
  5
15F
330
15C
100
AcDbEntity
  8
EBENE_1
100
AcDbVertex
100
AcDb2dVertex
 10
100.6258992261456
 20
-162.3639051243396
 30
0.0
  0
VERTEX
  5
160
330
15C
100
AcDbEntity
  8
EBENE_1
100
AcDbVertex
100
AcDb2dVertex
 10
98.94865448915174
 20
-165.5943711608584
 30
0.0
  0
SEQEND
  5
161
330
15C
100
AcDbEntity
  8
EBENE_1
  0
INSERT
  5
162
330
1F
100
AcDbEntity
  8
EBENE_1
 62
   250
100
AcDbBlockReference
  2
*U18
 10
0.0
 20
0.0
 30
0.0
1001
ACAD
1002
{
1000
R14_HATCH_DATA
1000
162
1011
1.0
1021
0.0
1031
0.0
1011
0.0
1021
1.0
1031
0.0
1011
0.0
1021
0.0
1031
1.0
1040
0.0
1010
0.0
1020
0.0
1030
1.0
1000
SOLID
1070
     1
1070
     1
1071
        1
1071
        1
1071
        3
1070
     1
1040
98.94865448915174
1040
-165.5943711608584
1040
97.58921981067215
1040
-162.3639051243396
1070
     1
1040
97.58921981067215
1040
-162.3639051243396
1040
100.6258992261456
1040
-162.3639051243396
1070
     1
1040
100.6258992261456
1040
-162.3639051243396
1040
98.94865448915174
1040
-165.5943711608584
1071
        0
1070
     2
1070
     1
1071
        0
1002
}
  0
POLYLINE
  5
163
330
1F
100
AcDbEntity
  8
EBENE_1
100
AcDb2dPolyline
 66
     1
 10
0.0
 20
0.0
 30
0.0
  0
VERTEX
  5
164
330
163
100
AcDbEntity
  8
EBENE_1
100
AcDbVertex
100
AcDb2dVertex
 10
99.12297632070538
 20
-153.1782470320179
 30
0.0
  0
VERTEX
  5
165
330
163
100
AcDbEntity
  8
EBENE_1
100
AcDbVertex
100
AcDb2dVertex
 10
97.76319713267726
 20
-156.4083685589882
 30
0.0
  0
VERTEX
  5
166
330
163
100
AcDbEntity
  8
EBENE_1
100
AcDbVertex
100
AcDb2dVertex
 10
100.7995320386022
 20
-156.4083685589882
 30
0.0
  0
VERTEX
  5
167
330
163
100
AcDbEntity
  8
EBENE_1
100
AcDbVertex
100
AcDb2dVertex
 10
99.12297632070538
 20
-153.1782470320179
 30
0.0
  0
SEQEND
  5
168
330
163
100
AcDbEntity
  8
EBENE_1
  0
INSERT
  5
169
330
1F
100
AcDbEntity
  8
EBENE_1
 62
   250
100
AcDbBlockReference
  2
*U19
 10
0.0
 20
0.0
 30
0.0
1001
ACAD
1002
{
1000
R14_HATCH_DATA
1000
169
1011
1.0
1021
0.0
1031
0.0
1011
0.0
1021
1.0
1031
0.0
1011
0.0
1021
0.0
1031
1.0
1040
0.0
1010
0.0
1020
0.0
1030
1.0
1000
SOLID
1070
     1
1070
     1
1071
        1
1071
        1
1071
        3
1070
     1
1040
99.12297632070538
1040
-153.1782470320179
1040
97.76319713267726
1040
-156.4083685589882
1070
     1
1040
97.76319713267726
1040
-156.4083685589882
1040
100.7995320386022
1040
-156.4083685589882
1070
     1
1040
100.7995320386022
1040
-156.4083685589882
1040
99.12297632070538
1040
-153.1782470320179
1071
        0
1070
     2
1070
     1
1071
        0
1002
}
  0
POLYLINE
  5
16A
330
1F
100
AcDbEntity
  8
EBENE_1
 62
   250
100
AcDb2dPolyline
 66
     1
 10
0.0
 20
0.0
 30
0.0
  0
VERTEX
  5
16B
330
16A
100
AcDbEntity
  8
EBENE_1
 62
   250
100
AcDbVertex
100
AcDb2dVertex
 10
119.4280246012194
 20
-176.5384059888515
 30
0.0
  0
VERTEX
  5
16C
330
16A
100
AcDbEntity
  8
EBENE_1
 62
   250
100
AcDbVertex
100
AcDb2dVertex
 10
121.6917968445771
 20
-176.5384059888515
 30
0.0
  0
SEQEND
  5
16D
330
16A
100
AcDbEntity
  8
EBENE_1
  0
POLYLINE
  5
16E
330
1F
100
AcDbEntity
  8
EBENE_1
 62
   250
100
AcDb2dPolyline
 66
     1
 10
0.0
 20
0.0
 30
0.0
  0
VERTEX
  5
16F
330
16E
100
AcDbEntity
  8
EBENE_1
 62
   250
100
AcDbVertex
100
AcDb2dVertex
 10
137.1647541974797
 20
-176.5893934020332
 30
0.0
  0
VERTEX
  5
170
330
16E
100
AcDbEntity
  8
EBENE_1
 62
   250
100
AcDbVertex
100
AcDb2dVertex
 10
134.0507323883623
 20
-176.5893934020332
 30
0.0
  0
SEQEND
  5
171
330
16E
100
AcDbEntity
  8
EBENE_1
  0
POLYLINE
  5
172
330
1F
100
AcDbEntity
  8
EBENE_1
100
AcDb2dPolyline
 66
     1
 10
0.0
 20
0.0
 30
0.0
  0
VERTEX
  5
173
330
172
100
AcDbEntity
  8
EBENE_1
100
AcDbVertex
100
AcDb2dVertex
 10
131.681540223156
 20
-176.6179876945608
 30
0.0
  0
VERTEX
  5
174
330
172
100
AcDbEntity
  8
EBENE_1
100
AcDbVertex
100
AcDb2dVertex
 10
134.9120062596748
 20
-175.2595865447268
 30
0.0
  0
VERTEX
  5
175
330
172
100
AcDbEntity
  8
EBENE_1
100
AcDbVertex
100
AcDb2dVertex
 10
134.9120062596748
 20
-178.2954046863289
 30
0.0
  0
VERTEX
  5
176
330
172
100
AcDbEntity
  8
EBENE_1
100
AcDbVertex
100
AcDb2dVertex
 10
131.681540223156
 20
-176.6179876945608
 30
0.0
  0
SEQEND
  5
177
330
172
100
AcDbEntity
  8
EBENE_1
  0
INSERT
  5
178
330
1F
100
AcDbEntity
  8
EBENE_1
 62
   250
100
AcDbBlockReference
  2
*U20
 10
0.0
 20
0.0
 30
0.0
1001
ACAD
1002
{
1000
R14_HATCH_DATA
1000
178
1011
1.0
1021
0.0
1031
0.0
1011
0.0
1021
1.0
1031
0.0
1011
0.0
1021
0.0
1031
1.0
1040
0.0
1010
0.0
1020
0.0
1030
1.0
1000
SOLID
1070
     1
1070
     1
1071
        1
1071
        1
1071
        3
1070
     1
1040
131.681540223156
1040
-176.6179876945608
1040
134.9120062596748
1040
-175.2595865447268
1070
     1
1040
134.9120062596748
1040
-175.2595865447268
1040
134.9120062596748
1040
-178.2954046863289
1070
     1
1040
134.9120062596748
1040
-178.2954046863289
1040
131.681540223156
1040
-176.6179876945608
1071
        0
1070
     2
1070
     1
1071
        0
1002
}
  0
POLYLINE
  5
179
330
1F
100
AcDbEntity
  8
EBENE_1
100
AcDb2dPolyline
 66
     1
 10
0.0
 20
0.0
 30
0.0
  0
VERTEX
  5
17A
330
179
100
AcDbEntity
  8
EBENE_1
100
AcDbVertex
100
AcDb2dVertex
 10
123.7884819569001
 20
-176.5883598733876
 30
0.0
  0
VERTEX
  5
17B
330
179
100
AcDbEntity
  8
EBENE_1
100
AcDbVertex
100
AcDb2dVertex
 10
120.5580159203813
 20
-175.2292697044566
 30
0.0
  0
VERTEX
  5
17C
330
179
100
AcDbEntity
  8
EBENE_1
100
AcDbVertex
100
AcDb2dVertex
 10
120.5580159203813
 20
-178.2657768651558
 30
0.0
  0
VERTEX
  5
17D
330
179
100
AcDbEntity
  8
EBENE_1
100
AcDbVertex
100
AcDb2dVertex
 10
123.7884819569001
 20
-176.5883598733876
 30
0.0
  0
SEQEND
  5
17E
330
179
100
AcDbEntity
  8
EBENE_1
  0
INSERT
  5
17F
330
1F
100
AcDbEntity
  8
EBENE_1
 62
   250
100
AcDbBlockReference
  2
*U21
 10
0.0
 20
0.0
 30
0.0
1001
ACAD
1002
{
1000
R14_HATCH_DATA
1000
17F
1011
1.0
1021
0.0
1031
0.0
1011
0.0
1021
1.0
1031
0.0
1011
0.0
1021
0.0
1031
1.0
1040
0.0
1010
0.0
1020
0.0
1030
1.0
1000
SOLID
1070
     1
1070
     1
1071
        1
1071
        1
1071
        3
1070
     1
1040
123.7884819569001
1040
-176.5883598733876
1040
120.5580159203813
1040
-175.2292697044566
1070
     1
1040
120.5580159203813
1040
-175.2292697044566
1040
120.5580159203813
1040
-178.2657768651558
1070
     1
1040
120.5580159203813
1040
-178.2657768651558
1040
123.7884819569001
1040
-176.5883598733876
1071
        0
1070
     2
1070
     1
1071
        0
1002
}
  0
MTEXT
  5
180
330
1F
100
AcDbEntity
  8
EBENE_1
 62
   250
100
AcDbMText
 10
126.020903831342
 20
-174.0992783852946
 30
0.0
 40
2.614150283265903
 41
0.0
 71
     7
 72
     1
  1
\fFutura Book|b0|i0|c0|p34;\W1;74
 11
1.192488045480604E-8
 21
-0.9999999999999999
 31
0.0
  0
MTEXT
  5
181
330
1F
100
AcDbEntity
  8
EBENE_1
 62
   250
100
AcDbMText
 10
125.7828477333112
 20
-165.837594902117
 30
0.0
 40
2.614150283265903
 41
0.0
 71
     7
 72
     1
  1
\fFutura Book|b0|i0|c0|p34;\W1;63
 11
1.192488045480604E-8
 21
-0.9999999999999999
 31
0.0
  0
POLYLINE
  5
182
330
1F
100
AcDbEntity
  8
EBENE_1
 62
   250
100
AcDb2dPolyline
 66
     1
 10
0.0
 20
0.0
 30
0.0
  0
VERTEX
  5
183
330
182
100
AcDbEntity
  8
EBENE_1
 62
   250
100
AcDbVertex
100
AcDb2dVertex
 10
125.0652343437337
 20
-163.7956868080094
 30
0.0
  0
VERTEX
  5
184
330
182
100
AcDbEntity
  8
EBENE_1
 62
   250
100
AcDbVertex
100
AcDb2dVertex
 10
125.0652343437337
 20
-171.0662163200807
 30
0.0
  0
SEQEND
  5
185
330
182
100
AcDbEntity
  8
EBENE_1
  0
POLYLINE
  5
186
330
1F
100
AcDbEntity
  8
EBENE_1
 62
   250
100
AcDb2dPolyline
 66
     1
 10
0.0
 20
0.0
 30
0.0
  0
VERTEX
  5
187
330
186
100
AcDbEntity
  8
EBENE_1
 62
   250
100
AcDbVertex
100
AcDb2dVertex
 10
130.2859320420813
 20
-163.9741427541454
 30
0.0
  0
VERTEX
  5
188
330
186
100
AcDbEntity
  8
EBENE_1
 62
   250
100
AcDbVertex
100
AcDb2dVertex
 10
130.2859320420813
 20
-170.9766438374642
 30
0.0
  0
SEQEND
  5
189
330
186
100
AcDbEntity
  8
EBENE_1
  0
POLYLINE
  5
18A
330
1F
100
AcDbEntity
  8
EBENE_1
 62
   250
100
AcDb2dPolyline
 66
     1
 10
0.0
 20
0.0
 30
0.0
  0
VERTEX
  5
18B
330
18A
100
AcDbEntity
  8
EBENE_1
 62
   250
100
AcDbVertex
100
AcDb2dVertex
 10
119.6085476046465
 20
-168.1158365465127
 30
0.0
  0
VERTEX
  5
18C
330
18A
100
AcDbEntity
  8
EBENE_1
 62
   250
100
AcDbVertex
100
AcDb2dVertex
 10
122.5506591490498
 20
-168.1158365465127
 30
0.0
  0
SEQEND
  5
18D
330
18A
100
AcDbEntity
  8
EBENE_1
  0
POLYLINE
  5
18E
330
1F
100
AcDbEntity
  8
EBENE_1
 62
   250
100
AcDb2dPolyline
 66
     1
 10
0.0
 20
0.0
 30
0.0
  0
VERTEX
  5
18F
330
18E
100
AcDbEntity
  8
EBENE_1
 62
   250
100
AcDbVertex
100
AcDb2dVertex
 10
138.8184000303996
 20
-167.8484971368573
 30
0.0
  0
VERTEX
  5
190
330
18E
100
AcDbEntity
  8
EBENE_1
 62
   250
100
AcDbVertex
100
AcDb2dVertex
 10
132.8446044589764
 20
-167.8484971368573
 30
0.0
  0
SEQEND
  5
191
330
18E
100
AcDbEntity
  8
EBENE_1
  0
POLYLINE
  5
192
330
1F
100
AcDbEntity
  8
EBENE_1
100
AcDb2dPolyline
 66
     1
 10
0.0
 20
0.0
 30
0.0
  0
VERTEX
  5
193
330
192
100
AcDbEntity
  8
EBENE_1
100
AcDbVertex
100
AcDb2dVertex
 10
130.3186604491912
 20
-167.6931233304726
 30
0.0
  0
VERTEX
  5
194
330
192
100
AcDbEntity
  8
EBENE_1
100
AcDbVertex
100
AcDb2dVertex
 10
133.5491264857099
 20
-166.3340331615415
 30
0.0
  0
VERTEX
  5
195
330
192
100
AcDbEntity
  8
EBENE_1
100
AcDbVertex
100
AcDb2dVertex
 10
133.5491264857099
 20
-169.3701958126922
 30
0.0
  0
VERTEX
  5
196
330
192
100
AcDbEntity
  8
EBENE_1
100
AcDbVertex
100
AcDb2dVertex
 10
130.3186604491912
 20
-167.6931233304726
 30
0.0
  0
SEQEND
  5
197
330
192
100
AcDbEntity
  8
EBENE_1
  0
INSERT
  5
198
330
1F
100
AcDbEntity
  8
EBENE_1
 62
   250
100
AcDbBlockReference
  2
*U22
 10
0.0
 20
0.0
 30
0.0
1001
ACAD
1002
{
1000
R14_HATCH_DATA
1000
198
1011
1.0
1021
0.0
1031
0.0
1011
0.0
1021
1.0
1031
0.0
1011
0.0
1021
0.0
1031
1.0
1040
0.0
1010
0.0
1020
0.0
1030
1.0
1000
SOLID
1070
     1
1070
     1
1071
        1
1071
        1
1071
        3
1070
     1
1040
130.3186604491912
1040
-167.6931233304726
1040
133.5491264857099
1040
-166.3340331615415
1070
     1
1040
133.5491264857099
1040
-166.3340331615415
1040
133.5491264857099
1040
-169.3701958126922
1070
     1
1040
133.5491264857099
1040
-169.3701958126922
1040
130.3186604491912
1040
-167.6931233304726
1071
        0
1070
     2
1070
     1
1071
        0
1002
}
  0
POLYLINE
  5
199
330
1F
100
AcDbEntity
  8
EBENE_1
100
AcDb2dPolyline
 66
     1
 10
0.0
 20
0.0
 30
0.0
  0
VERTEX
  5
19A
330
199
100
AcDbEntity
  8
EBENE_1
100
AcDbVertex
100
AcDb2dVertex
 10
125.0252712361048
 20
-168.1241047756773
 30
0.0
  0
VERTEX
  5
19B
330
199
100
AcDbEntity
  8
EBENE_1
100
AcDbVertex
100
AcDb2dVertex
 10
121.7951497091345
 20
-166.7646700971977
 30
0.0
  0
VERTEX
  5
19C
330
199
100
AcDbEntity
  8
EBENE_1
100
AcDbVertex
100
AcDb2dVertex
 10
121.7951497091345
 20
-169.8015217674455
 30
0.0
  0
VERTEX
  5
19D
330
199
100
AcDbEntity
  8
EBENE_1
100
AcDbVertex
100
AcDb2dVertex
 10
125.0252712361048
 20
-168.1241047756773
 30
0.0
  0
SEQEND
  5
19E
330
199
100
AcDbEntity
  8
EBENE_1
  0
INSERT
  5
19F
330
1F
100
AcDbEntity
  8
EBENE_1
 62
   250
100
AcDbBlockReference
  2
*U23
 10
0.0
 20
0.0
 30
0.0
1001
ACAD
1002
{
1000
R14_HATCH_DATA
1000
19F
1011
1.0
1021
0.0
1031
0.0
1011
0.0
1021
1.0
1031
0.0
1011
0.0
1021
0.0
1031
1.0
1040
0.0
1010
0.0
1020
0.0
1030
1.0
1000
SOLID
1070
     1
1070
     1
1071
        1
1071
        1
1071
        3
1070
     1
1040
125.0252712361048
1040
-168.1241047756773
1040
121.7951497091345
1040
-166.7646700971977
1070
     1
1040
121.7951497091345
1040
-166.7646700971977
1040
121.7951497091345
1040
-169.8015217674455
1070
     1
1040
121.7951497091345
1040
-169.8015217674455
1040
125.0252712361048
1040
-168.1241047756773
1071
        0
1070
     2
1070
     1
1071
        0
1002
}
  0
ENDSEC
  0
SECTION
  2
OBJECTS
  0
DICTIONARY
  5
C
330
0
100
AcDbDictionary
  3
ACAD_GROUP
350
D
  3
ACAD_LAYOUT
350
1A
  3
ACAD_MLINESTYLE
350
17
  3
ACAD_PLOTSETTINGS
350
19
  3
ACAD_TABLESTYLE
350
1A0
  3
ACAD_VISUALSTYLE
350
2A
1001
ACAD
1000
TREAT_AS_HARD
1070
     0
  0
DICTIONARY
  5
D
102
{ACAD_REACTORS
330
C
102
}
330
C
100
AcDbDictionary
1001
ACAD
1000
TREAT_AS_HARD
1070
     0
  0
DICTIONARY
  5
1A
102
{ACAD_REACTORS
330
C
102
}
330
C
100
AcDbDictionary
1001
ACAD
1000
TREAT_AS_HARD
1070
     0
  0
DICTIONARY
  5
17
102
{ACAD_REACTORS
330
C
102
}
330
C
100
AcDbDictionary
  3
STANDARD
350
18
1001
ACAD
1000
TREAT_AS_HARD
1070
     0
  0
DICTIONARY
  5
19
102
{ACAD_REACTORS
330
C
102
}
330
C
100
AcDbDictionary
1001
ACAD
1000
TREAT_AS_HARD
1070
     0
  0
DICTIONARY
  5
1A0
102
{ACAD_REACTORS
330
C
102
}
330
C
100
AcDbDictionary
1001
ACAD
1000
TREAT_AS_HARD
1070
     0
  0
DICTIONARY
  5
2A
102
{ACAD_REACTORS
330
C
102
}
330
C
100
AcDbDictionary
  3
2DWIREFRAME
350
2F
  3
3D_HIDDEN
350
31
  3
3DWIREFRAME
350
30
  3
BASIC
350
32
  3
BRIGHTEN
350
36
  3
COLORCHANGE
350
3A
  3
CONCEPTUAL
350
34
  3
DIM
350
35
  3
FACEPATTERN
350
39
  3
FLAT
350
2B
  3
FLATWITHEDGES
350
2C
  3
GOURAUD
350
2D
  3
GOURAUDWITHEDGES
350
2E
  3
LINEPATTERN
350
38
  3
REALISTIC
350
33
  3
THICKEN
350
37
1001
ACAD
1000
TREAT_AS_HARD
1070
     0
  0
MLINESTYLE
  5
18
102
{ACAD_REACTORS
330
17
102
}
330
17
100
AcDbMlineStyle
  2
Standard
 70
     0
  3

 62
   256
 51
90.0
 52
90.0
 71
     2
 49
0.5
 62
   256
  6
BYLAYER
 49
-0.5
 62
   256
  6
BYLAYER
  0
VISUALSTYLE
  5
2F
102
{ACAD_REACTORS
330
2A
102
}
330
2A
100
AcDbVisualStyle
  2
2dWireframe
 70
     4
 71
     0
 72
     2
 73
     0
 90
        0
 40
-0.6
 41
-30.0
 62
     5
 63
     7
 74
     1
 91
        4
 64
     7
 65
   257
 75
     1
175
     1
 42
1.0
 92
        0
 66
   257
 43
1.0
 76
     1
 77
     6
 78
     2
 67
     7
 79
     5
170
     0
171
     0
290
     0
174
     0
 93
        1
 44
0.0
173
     0
291
     0
 45
0.0
1001
ACAD
1000
AcDbSavedByObjectVersion
1070
     0
  0
VISUALSTYLE
  5
31
102
{ACAD_REACTORS
330
2A
102
}
330
2A
100
AcDbVisualStyle
  2
3D Hidden
 70
     6
 71
     1
 72
     2
 73
     2
 90
        0
 40
-0.6
 41
-30.0
 62
     5
 63
     7
 74
     2
 91
        2
 64
     7
 65
   257
 75
     2
175
     1
 42
40.0
 92
        0
 66
   257
 43
1.0
 76
     1
 77
     6
 78
     2
 67
     7
 79
     3
170
     0
171
     0
290
     0
174
     0
 93
        1
 44
0.0
173
     0
291
     0
 45
0.0
1001
ACAD
1000
AcDbSavedByObjectVersion
1070
     0
  0
VISUALSTYLE
  5
30
102
{ACAD_REACTORS
330
2A
102
}
330
2A
100
AcDbVisualStyle
  2
3dWireframe
 70
     5
 71
     0
 72
     2
 73
     0
 90
        0
 40
-0.6
 41
-30.0
 62
     5
 63
     7
 74
     1
 91
        4
 64
     7
 65
   257
 75
     1
175
     1
 42
1.0
 92
        0
 66
   257
 43
1.0
 76
     1
 77
     6
 78
     2
 67
     7
 79
     5
170
     0
171
     0
290
     0
174
     0
 93
        1
 44
0.0
173
     0
291
     0
 45
0.0
1001
ACAD
1000
AcDbSavedByObjectVersion
1070
     0
  0
VISUALSTYLE
  5
32
102
{ACAD_REACTORS
330
2A
102
}
330
2A
100
AcDbVisualStyle
  2
Basic
 70
     7
 71
     1
 72
     0
 73
     1
 90
        0
 40
-0.6
 41
-30.0
 62
     5
 63
     7
 74
     0
 91
        4
 64
     7
 65
   257
 75
     1
175
     1
 42
1.0
 92
        8
 66
     7
 43
1.0
 76
     1
 77
     6
 78
     2
 67
     7
 79
     5
170
     0
171
     0
290
     0
174
     0
 93
        1
 44
0.0
173
     0
291
     1
 45
0.0
1001
ACAD
1000
AcDbSavedByObjectVersion
1070
     0
  0
VISUALSTYLE
  5
36
102
{ACAD_REACTORS
330
2A
102
}
330
2A
100
AcDbVisualStyle
  2
Brighten
 70
    12
 71
     2
 72
     2
 73
     0
 90
        0
 40
-0.6
 41
-30.0
 62
     5
 63
     7
 74
     1
 91
        4
 64
     7
 65
   257
 75
     1
175
     1
 42
1.0
 92
        8
 66
     7
 43
1.0
 76
     1
 77
     6
 78
     2
 67
     7
 79
     5
170
     0
171
     0
290
     0
174
     0
 93
        1
 44
50.0
173
     0
291
     1
 45
0.0
1001
ACAD
1000
AcDbSavedByObjectVersion
1070
     0
  0
VISUALSTYLE
  5
3A
102
{ACAD_REACTORS
330
2A
102
}
330
2A
100
AcDbVisualStyle
  2
ColorChange
 70
    16
 71
     2
 72
     2
 73
     3
 90
        0
 40
-0.6
 41
-30.0
 62
     5
 63
     8
 74
     1
 91
        4
 64
     7
 65
   257
 75
     1
175
     1
 42
1.0
 92
        8
 66
     8
 43
1.0
 76
     1
 77
     6
 78
     2
 67
     7
 79
     5
170
     0
171
     0
290
     0
174
     0
 93
        1
 44
0.0
173
     0
291
     1
 45
0.0
1001
ACAD
1000
AcDbSavedByObjectVersion
1070
     0
  0
VISUALSTYLE
  5
34
102
{ACAD_REACTORS
330
2A
102
}
330
2A
100
AcDbVisualStyle
  2
Conceptual
 70
     9
 71
     3
 72
     2
 73
     0
 90
        0
 40
-0.6
 41
-30.0
 62
     5
 63
     7
 74
     2
 91
        2
 64
     7
 65
   257
 75
     1
175
     1
 42
40.0
 92
        8
 66
     7
 43
1.0
 76
     1
 77
     6
 78
     2
 67
     7
 79
     3
170
     0
171
     0
290
     0
174
     0
 93
        1
 44
0.0
173
     0
291
     0
 45
0.0
1001
ACAD
1000
AcDbSavedByObjectVersion
1070
     0
  0
VISUALSTYLE
  5
35
102
{ACAD_REACTORS
330
2A
102
}
330
2A
100
AcDbVisualStyle
  2
Dim
 70
    11
 71
     2
 72
     2
 73
     0
 90
        0
 40
-0.6
 41
-30.0
 62
     5
 63
     7
 74
     1
 91
        4
 64
     7
 65
   257
 75
     1
175
     1
 42
1.0
 92
        8
 66
     7
 43
1.0
 76
     1
 77
     6
 78
     2
 67
     7
 79
     5
170
     0
171
     0
290
     0
174
     0
 93
        1
 44
-50.0
173
     0
291
     1
 45
0.0
1001
ACAD
1000
AcDbSavedByObjectVersion
1070
     0
  0
VISUALSTYLE
  5
39
102
{ACAD_REACTORS
330
2A
102
}
330
2A
100
AcDbVisualStyle
  2
Facepattern
 70
    15
 71
     2
 72
     2
 73
     0
 90
        0
 40
-0.6
 41
-30.0
 62
     5
 63
     7
 74
     1
 91
        4
 64
     7
 65
   257
 75
     1
175
     1
 42
1.0
 92
        8
 66
     7
 43
1.0
 76
     1
 77
     6
 78
     2
 67
     7
 79
     5
170
     0
171
     0
290
     0
174
     0
 93
        1
 44
0.0
173
     0
291
     1
 45
0.0
1001
ACAD
1000
AcDbSavedByObjectVersion
1070
     0
  0
VISUALSTYLE
  5
2B
102
{ACAD_REACTORS
330
2A
102
}
330
2A
100
AcDbVisualStyle
  2
Flat
 70
     0
 71
     2
 72
     1
 73
     1
 90
        2
 40
-0.6
 41
30.0
 62
     5
 63
     7
 74
     0
 91
        4
 64
     7
 65
   257
 75
     1
175
     1
 42
1.0
 92
        8
 66
     7
 43
1.0
 76
     1
 77
     6
 78
     2
 67
     7
 79
     5
170
     0
171
     0
290
     0
174
     0
 93
       13
 44
0.0
173
     0
291
     1
 45
0.0
1001
ACAD
1000
AcDbSavedByObjectVersion
1070
     0
  0
VISUALSTYLE
  5
2C
102
{ACAD_REACTORS
330
2A
102
}
330
2A
100
AcDbVisualStyle
  2
FlatWithEdges
 70
     1
 71
     2
 72
     1
 73
     1
 90
        2
 40
-0.6
 41
30.0
 62
     5
 63
     7
 74
     1
 91
        4
 64
     7
 65
   257
 75
     1
175
     1
 42
1.0
 92
        0
 66
   257
 43
1.0
 76
     1
 77
     6
 78
     2
 67
     7
 79
     5
170
     0
171
     0
290
     0
174
     0
 93
       13
 44
0.0
173
     0
291
     1
 45
0.0
1001
ACAD
1000
AcDbSavedByObjectVersion
1070
     0
  0
VISUALSTYLE
  5
2D
102
{ACAD_REACTORS
330
2A
102
}
330
2A
100
AcDbVisualStyle
  2
Gouraud
 70
     2
 71
     2
 72
     2
 73
     1
 90
        2
 40
-0.6
 41
30.0
 62
     5
 63
     7
 74
     0
 91
        4
 64
     7
 65
   257
 75
     1
175
     1
 42
1.0
 92
        0
 66
     7
 43
1.0
 76
     1
 77
     6
 78
     2
 67
     7
 79
     5
170
     0
171
     0
290
     0
174
     0
 93
       13
 44
0.0
173
     0
291
     1
 45
0.0
1001
ACAD
1000
AcDbSavedByObjectVersion
1070
     0
  0
VISUALSTYLE
  5
2E
102
{ACAD_REACTORS
330
2A
102
}
330
2A
100
AcDbVisualStyle
  2
GouraudWithEdges
 70
     3
 71
     2
 72
     2
 73
     1
 90
        2
 40
-0.6
 41
30.0
 62
     5
 63
     7
 74
     1
 91
        4
 64
     7
 65
   257
 75
     1
175
     1
 42
1.0
 92
        0
 66
   257
 43
1.0
 76
     1
 77
     6
 78
     2
 67
     7
 79
     5
170
     0
171
     0
290
     0
174
     0
 93
       13
 44
0.0
173
     0
291
     1
 45
0.0
1001
ACAD
1000
AcDbSavedByObjectVersion
1070
     0
  0
VISUALSTYLE
  5
38
102
{ACAD_REACTORS
330
2A
102
}
330
2A
100
AcDbVisualStyle
  2
Linepattern
 70
    14
 71
     2
 72
     2
 73
     0
 90
        0
 40
-0.6
 41
-30.0
 62
     5
 63
     7
 74
     1
 91
        4
 64
     7
 65
   257
 75
     7
175
     7
 42
1.0
 92
        8
 66
     7
 43
1.0
 76
     1
 77
     6
 78
     2
 67
     7
 79
     5
170
     0
171
     0
290
     0
174
     0
 93
        1
 44
0.0
173
     0
291
     1
 45
0.0
1001
ACAD
1000
AcDbSavedByObjectVersion
1070
     0
  0
VISUALSTYLE
  5
33
102
{ACAD_REACTORS
330
2A
102
}
330
2A
100
AcDbVisualStyle
  2
Realistic
 70
     8
 71
     2
 72
     2
 73
     0
 90
        0
 40
-0.6
 41
-30.0
 62
     5
 63
     7
 74
     1
 91
        0
 64
     7
 65
   257
 75
     1
175
     1
 42
1.0
 92
        8
 66
     8
 43
1.0
 76
     1
 77
     6
 78
     2
 67
     7
 79
     5
170
     0
171
     0
290
     0
174
     0
 93
       13
 44
0.0
173
     0
291
     0
 45
0.0
1001
ACAD
1000
AcDbSavedByObjectVersion
1070
     0
  0
VISUALSTYLE
  5
37
102
{ACAD_REACTORS
330
2A
102
}
330
2A
100
AcDbVisualStyle
  2
Thicken
 70
    13
 71
     2
 72
     2
 73
     0
 90
        0
 40
-0.6
 41
-30.0
 62
     5
 63
     7
 74
     1
 91
        4
 64
     7
 65
   257
 75
     1
175
     1
 42
1.0
 92
       12
 66
     7
 43
1.0
 76
     1
 77
     6
 78
     2
 67
     7
 79
     5
170
     0
171
     0
290
     0
174
     0
 93
        1
 44
0.0
173
     0
291
     1
 45
0.0
1001
ACAD
1000
AcDbSavedByObjectVersion
1070
     0
  0
ENDSEC
  0
EOF
